ISO-10303-21;
HEADER;
FILE_DESCRIPTION (( 'STEP AP214' ),
    '1' );
FILE_NAME ('039-SPR.STEP',
    '2023-06-19T14:51:04',
    ( '' ),
    ( '' ),
    'SwSTEP 2.0',
    'SolidWorks 2020',
    '' );
FILE_SCHEMA (( 'AUTOMOTIVE_DESIGN' ));
ENDSEC;

DATA;
#1 = APPLICATION_PROTOCOL_DEFINITION ( 'draft international standard', 'automotive_design', 1998, #170 ) ;
#2 = EDGE_CURVE ( 'NONE', #165, #165, #243, .T. ) ;
#3 = PRESENTATION_STYLE_ASSIGNMENT (( #173 ) ) ;
#4 = ADVANCED_FACE ( 'NONE', ( #123, #79 ), #49, .T. ) ;
#5 = CARTESIAN_POINT ( 'NONE',  ( -1.776792980596857943E-20, 0.000000000000000000, 0.000000000000000000 ) ) ;
#6 = EDGE_CURVE ( 'NONE', #111, #111, #76, .T. ) ;
#7 = AXIS2_PLACEMENT_3D ( 'NONE', #35, #207, #85 ) ;
#8 = EDGE_LOOP ( 'NONE', ( #179 ) ) ;
#9 = EDGE_LOOP ( 'NONE', ( #195 ) ) ;
#10 = DIRECTION ( 'NONE',  ( -1.000000000000000000, -0.000000000000000000, -0.000000000000000000 ) ) ;
#11 =( GEOMETRIC_REPRESENTATION_CONTEXT ( 3 ) GLOBAL_UNCERTAINTY_ASSIGNED_CONTEXT ( ( #72 ) ) GLOBAL_UNIT_ASSIGNED_CONTEXT ( ( #108, #171, #129 ) ) REPRESENTATION_CONTEXT ( 'NONE', 'WORKASPACE' ) );
#12 = PLANE ( 'NONE',  #46 ) ;
#13 = FACE_BOUND ( 'NONE', #23, .T. ) ;
#14 = CARTESIAN_POINT ( 'NONE',  ( 1.209999999999999964, 0.000000000000000000, 0.000000000000000000 ) ) ;
#15 = CIRCLE ( 'NONE', #153, 0.01104000000000000987 ) ;
#16 = VERTEX_POINT ( 'NONE', #87 ) ;
#17 = ADVANCED_FACE ( 'NONE', ( #181 ), #12, .F. ) ;
#18 = CARTESIAN_POINT ( 'NONE',  ( 1.134930517214245649, 0.000000000000000000, 0.01030000000000000013 ) ) ;
#19 = AXIS2_PLACEMENT_3D ( 'NONE', #14, #232, #67 ) ;
#20 = ORIENTED_EDGE ( 'NONE', *, *, #175, .T. ) ;
#21 = EDGE_LOOP ( 'NONE', ( #160 ) ) ;
#22 = DIRECTION ( 'NONE',  ( 1.000000000000000000, 0.000000000000000000, 0.000000000000000000 ) ) ;
#23 = EDGE_LOOP ( 'NONE', ( #215 ) ) ;
#24 = STYLED_ITEM ( 'NONE', ( #34 ), #202 ) ;
#25 = ADVANCED_FACE ( 'NONE', ( #161, #198 ), #38, .T. ) ;
#26 = CARTESIAN_POINT ( 'NONE',  ( 1.127714043005880518, 0.000000000000000000, 0.000000000000000000 ) ) ;
#27 = DIRECTION ( 'NONE',  ( -1.000000000000000000, 0.000000000000000000, -0.000000000000000000 ) ) ;
#28 = AXIS2_PLACEMENT_3D ( 'NONE', #84, #107, #147 ) ;
#29 = DIRECTION ( 'NONE',  ( -0.000000000000000000, 0.000000000000000000, 1.000000000000000000 ) ) ;
#30 = EDGE_CURVE ( 'NONE', #110, #110, #64, .T. ) ;
#31 = DIRECTION ( 'NONE',  ( -1.000000000000000000, -0.000000000000000000, -0.000000000000000000 ) ) ;
#32 = AXIS2_PLACEMENT_3D ( 'NONE', #234, #113, #22 ) ;
#33 = UNCERTAINTY_MEASURE_WITH_UNIT (LENGTH_MEASURE( 1.000000000000000082E-05 ), #218, 'distance_accuracy_value', 'NONE');
#34 = PRESENTATION_STYLE_ASSIGNMENT (( #66 ) ) ;
#35 = CARTESIAN_POINT ( 'NONE',  ( 1.134930517214245649, 0.000000000000000000, 0.000000000000000000 ) ) ;
#36 = DIRECTION ( 'NONE',  ( 0.000000000000000000, 0.000000000000000000, 1.000000000000000000 ) ) ;
#37 = APPLICATION_PROTOCOL_DEFINITION ( 'draft international standard', 'automotive_design', 1998, #101 ) ;
#38 = TOROIDAL_SURFACE ( 'NONE', #159, 0.003149999999999999589, 0.008999999999999990646 ) ;
#39 = ORIENTED_EDGE ( 'NONE', *, *, #30, .F. ) ;
#40 = FILL_AREA_STYLE ('',( #89 ) ) ;
#41 = EDGE_LOOP ( 'NONE', ( #174 ) ) ;
#42 = MECHANICAL_DESIGN_GEOMETRIC_PRESENTATION_REPRESENTATION (  '', ( #82 ), #139 ) ;
#43 = DIRECTION ( 'NONE',  ( 0.000000000000000000, 0.000000000000000000, 1.000000000000000000 ) ) ;
#44 = FACE_OUTER_BOUND ( 'NONE', #112, .T. ) ;
#45 = ORIENTED_EDGE ( 'NONE', *, *, #120, .F. ) ;
#46 = AXIS2_PLACEMENT_3D ( 'NONE', #48, #27, #29 ) ;
#47 = ORIENTED_EDGE ( 'NONE', *, *, #30, .T. ) ;
#48 = CARTESIAN_POINT ( 'NONE',  ( 1.209999999999999964, 0.000000000000000000, 0.000000000000000000 ) ) ;
#49 = CONICAL_SURFACE ( 'NONE', #180, 0.01085000000000000027, 0.5235987755982071112 ) ;
#50 = ADVANCED_FACE ( 'NONE', ( #242 ), #58, .F. ) ;
#51 = DIRECTION ( 'NONE',  ( -1.000000000000000000, -0.000000000000000000, -0.000000000000000000 ) ) ;
#52 = ADVANCED_FACE ( 'NONE', ( #162, #59 ), #57, .T. ) ;
#53 =( LENGTH_UNIT ( ) NAMED_UNIT ( * ) SI_UNIT ( $, .METRE. ) );
#54 = CARTESIAN_POINT ( 'NONE',  ( 1.127714043005880518, 0.000000000000000000, 0.01214999999999999934 ) ) ;
#55 = EDGE_LOOP ( 'NONE', ( #20 ) ) ;
#56 = AXIS2_PLACEMENT_3D ( 'NONE', #142, #143, #98 ) ;
#57 = CYLINDRICAL_SURFACE ( 'NONE', #56, 0.01214999999999993863 ) ;
#58 = PLANE ( 'NONE',  #248 ) ;
#59 = FACE_OUTER_BOUND ( 'NONE', #55, .T. ) ;
#60 = ADVANCED_BREP_SHAPE_REPRESENTATION ( '039-SPR', ( #202, #32 ), #211 ) ;
#61 = CARTESIAN_POINT ( 'NONE',  ( 0.0007599342076786376118, 0.000000000000000000, 0.000000000000000000 ) ) ;
#62 = FACE_OUTER_BOUND ( 'NONE', #8, .T. ) ;
#63 = DIRECTION ( 'NONE',  ( 0.000000000000000000, 0.000000000000000000, 1.000000000000000000 ) ) ;
#64 = CIRCLE ( 'NONE', #73, 0.01085000000000000027 ) ;
#65 = PRODUCT_DEFINITION_SHAPE ( 'NONE', 'NONE',  #78 ) ;
#66 = SURFACE_STYLE_USAGE ( .BOTH. , #127 ) ;
#67 = DIRECTION ( 'NONE',  ( 0.000000000000000000, 0.000000000000000000, 1.000000000000000000 ) ) ;
#68 = UNCERTAINTY_MEASURE_WITH_UNIT (LENGTH_MEASURE( 1.000000000000000082E-05 ), #217, 'distance_accuracy_value', 'NONE');
#69 = DIRECTION ( 'NONE',  ( -1.000000000000000000, -0.000000000000000000, -0.000000000000000000 ) ) ;
#70 = PRODUCT_RELATED_PRODUCT_CATEGORY ( 'part', '', ( #106 ) ) ;
#71 = EDGE_LOOP ( 'NONE', ( #238 ) ) ;
#72 = UNCERTAINTY_MEASURE_WITH_UNIT (LENGTH_MEASURE( 1.000000000000000082E-05 ), #108, 'distance_accuracy_value', 'NONE');
#73 = AXIS2_PLACEMENT_3D ( 'NONE', #182, #31, #158 ) ;
#74 = SURFACE_STYLE_FILL_AREA ( #40 ) ;
#75 = ORIENTED_EDGE ( 'NONE', *, *, #2, .T. ) ;
#76 = CIRCLE ( 'NONE', #144, 0.01029999999999999839 ) ;
#77 = FACE_OUTER_BOUND ( 'NONE', #235, .T. ) ;
#78 = PRODUCT_DEFINITION ( 'UNKNOWN', '', #205, #188 ) ;
#79 = FACE_OUTER_BOUND ( 'NONE', #219, .T. ) ;
#80 = DIRECTION ( 'NONE',  ( 1.000000000000000000, 0.000000000000000000, 0.000000000000000000 ) ) ;
#81 = CARTESIAN_POINT ( 'NONE',  ( 1.209999999999999964, 0.000000000000000000, 0.000000000000000000 ) ) ;
#82 = STYLED_ITEM ( 'NONE', ( #3 ), #60 ) ;
#83 = SURFACE_STYLE_FILL_AREA ( #148 ) ;
#84 = CARTESIAN_POINT ( 'NONE',  ( 1.134930517214245649, 0.000000000000000000, 0.000000000000000000 ) ) ;
#85 = DIRECTION ( 'NONE',  ( 0.000000000000000000, 0.000000000000000000, 1.000000000000000000 ) ) ;
#86 = PRESENTATION_LAYER_ASSIGNMENT (  '', '', ( #24 ) ) ;
#87 = CARTESIAN_POINT ( 'NONE',  ( -1.776792980596857943E-20, 0.000000000000000000, 0.01250000000000000069 ) ) ;
#88 = CONICAL_SURFACE ( 'NONE', #19, 0.009117949192431121577, 1.047197551196685339 ) ;
#89 = FILL_AREA_STYLE_COLOUR ( '', #197 ) ;
#90 = EDGE_CURVE ( 'NONE', #16, #16, #96, .T. ) ;
#91 = EDGE_LOOP ( 'NONE', ( #140 ) ) ;
#92 = DIMENSIONAL_EXPONENTS ( 1.000000000000000000, 0.000000000000000000, 0.000000000000000000, 0.000000000000000000, 0.000000000000000000, 0.000000000000000000, 0.000000000000000000 ) ;
#93 = SHAPE_DEFINITION_REPRESENTATION ( #65, #60 ) ;
#94 = ORIENTED_EDGE ( 'NONE', *, *, #90, .T. ) ;
#95 = PRODUCT_CONTEXT ( 'NONE', #170, 'mechanical' ) ;
#96 = CIRCLE ( 'NONE', #229, 0.01250000000000000069 ) ;
#97 = ORIENTED_EDGE ( 'NONE', *, *, #244, .F. ) ;
#98 = DIRECTION ( 'NONE',  ( 0.000000000000000000, 0.000000000000000000, 1.000000000000000000 ) ) ;
#99 = AXIS2_PLACEMENT_3D ( 'NONE', #222, #145, #43 ) ;
#100 = CARTESIAN_POINT ( 'NONE',  ( 1.207779422863406005, 0.000000000000000000, 0.000000000000000000 ) ) ;
#101 = APPLICATION_CONTEXT ( 'automotive_design' ) ;
#102 = DIRECTION ( 'NONE',  ( 0.000000000000000000, 0.000000000000000000, 1.000000000000000000 ) ) ;
#103 = DIRECTION ( 'NONE',  ( 0.000000000000000000, 0.000000000000000000, 1.000000000000000000 ) ) ;
#104 = EDGE_LOOP ( 'NONE', ( #133 ) ) ;
#105 = DIRECTION ( 'NONE',  ( -1.000000000000000000, -0.000000000000000000, -0.000000000000000000 ) ) ;
#106 = PRODUCT ( '039-SPR', '039-SPR', '', ( #95 ) ) ;
#107 = DIRECTION ( 'NONE',  ( -1.000000000000000000, -0.000000000000000000, -0.000000000000000000 ) ) ;
#108 =( CONVERSION_BASED_UNIT ( 'INCH', #246 ) LENGTH_UNIT ( ) NAMED_UNIT ( #190 ) );
#109 = CIRCLE ( 'NONE', #134, 0.009117949192431121577 ) ;
#110 = VERTEX_POINT ( 'NONE', #166 ) ;
#111 = VERTEX_POINT ( 'NONE', #186 ) ;
#112 = EDGE_LOOP ( 'NONE', ( #39 ) ) ;
#113 = DIRECTION ( 'NONE',  ( 0.000000000000000000, 0.000000000000000000, 1.000000000000000000 ) ) ;
#114 = EDGE_LOOP ( 'NONE', ( #192 ) ) ;
#115 = ADVANCED_FACE ( 'NONE', ( #183, #77 ), #227, .T. ) ;
#116 =( NAMED_UNIT ( * ) SI_UNIT ( $, .STERADIAN. ) SOLID_ANGLE_UNIT ( ) );
#117 = DIMENSIONAL_EXPONENTS ( 1.000000000000000000, 0.000000000000000000, 0.000000000000000000, 0.000000000000000000, 0.000000000000000000, 0.000000000000000000, 0.000000000000000000 ) ;
#118 = CLOSED_SHELL ( 'NONE', ( #141, #25, #52, #209, #50, #131, #4, #185, #115, #17 ) ) ;
#119 = DIRECTION ( 'NONE',  ( 1.000000000000000000, 0.000000000000000000, 0.000000000000000000 ) ) ;
#120 = EDGE_CURVE ( 'NONE', #172, #172, #109, .T. ) ;
#121 = DIRECTION ( 'NONE',  ( 0.000000000000000000, 0.000000000000000000, -1.000000000000000000 ) ) ;
#122 = AXIS2_PLACEMENT_3D ( 'NONE', #206, #69, #36 ) ;
#123 = FACE_BOUND ( 'NONE', #104, .T. ) ;
#124 = EDGE_LOOP ( 'NONE', ( #75 ) ) ;
#125 = DIRECTION ( 'NONE',  ( -1.000000000000000000, -0.000000000000000000, -0.000000000000000000 ) ) ;
#126 = EDGE_CURVE ( 'NONE', #152, #152, #200, .T. ) ;
#127 = SURFACE_SIDE_STYLE ('',( #83 ) ) ;
#128 = CARTESIAN_POINT ( 'NONE',  ( 1.208279422863405950, 0.000000000000000000, 0.01043397459621549575 ) ) ;
#129 =( NAMED_UNIT ( * ) SI_UNIT ( $, .STERADIAN. ) SOLID_ANGLE_UNIT ( ) );
#130 = AXIS2_PLACEMENT_3D ( 'NONE', #151, #105, #187 ) ;
#131 = ADVANCED_FACE ( 'NONE', ( #44, #13 ), #88, .T. ) ;
#132 =( NAMED_UNIT ( * ) PLANE_ANGLE_UNIT ( ) SI_UNIT ( $, .RADIAN. ) );
#133 = ORIENTED_EDGE ( 'NONE', *, *, #2, .F. ) ;
#134 = AXIS2_PLACEMENT_3D ( 'NONE', #81, #164, #245 ) ;
#135 = VERTEX_POINT ( 'NONE', #18 ) ;
#136 = ORIENTED_EDGE ( 'NONE', *, *, #126, .T. ) ;
#137 = ORIENTED_EDGE ( 'NONE', *, *, #6, .T. ) ;
#138 =( NAMED_UNIT ( * ) SI_UNIT ( $, .STERADIAN. ) SOLID_ANGLE_UNIT ( ) );
#139 =( GEOMETRIC_REPRESENTATION_CONTEXT ( 3 ) GLOBAL_UNCERTAINTY_ASSIGNED_CONTEXT ( ( #33 ) ) GLOBAL_UNIT_ASSIGNED_CONTEXT ( ( #218, #132, #138 ) ) REPRESENTATION_CONTEXT ( 'NONE', 'WORKASPACE' ) );
#140 = ORIENTED_EDGE ( 'NONE', *, *, #175, .F. ) ;
#141 = ADVANCED_FACE ( 'NONE', ( #150, #168 ), #216, .F. ) ;
#142 = CARTESIAN_POINT ( 'NONE',  ( 0.000000000000000000, 0.000000000000000000, 0.000000000000000000 ) ) ;
#143 = DIRECTION ( 'NONE',  ( -1.000000000000000000, -0.000000000000000000, -0.000000000000000000 ) ) ;
#144 = AXIS2_PLACEMENT_3D ( 'NONE', #100, #184, #226 ) ;
#145 = DIRECTION ( 'NONE',  ( -1.000000000000000000, -0.000000000000000000, -0.000000000000000000 ) ) ;
#146 = CARTESIAN_POINT ( 'NONE',  ( 1.209000000000000075, 0.000000000000000000, 0.000000000000000000 ) ) ;
#147 = DIRECTION ( 'NONE',  ( 0.000000000000000000, 0.000000000000000000, 1.000000000000000000 ) ) ;
#148 = FILL_AREA_STYLE ('',( #208 ) ) ;
#149 = AXIS2_PLACEMENT_3D ( 'NONE', #61, #125, #204 ) ;
#150 = FACE_OUTER_BOUND ( 'NONE', #199, .T. ) ;
#151 = CARTESIAN_POINT ( 'NONE',  ( 1.127714043005880518, 0.000000000000000000, 0.000000000000000000 ) ) ;
#152 = VERTEX_POINT ( 'NONE', #237 ) ;
#153 = AXIS2_PLACEMENT_3D ( 'NONE', #210, #51, #189 ) ;
#154 =( LENGTH_UNIT ( ) NAMED_UNIT ( * ) SI_UNIT ( $, .METRE. ) );
#155 = CIRCLE ( 'NONE', #130, 0.01214999999999999934 ) ;
#156 = EDGE_LOOP ( 'NONE', ( #136 ) ) ;
#157 = SURFACE_SIDE_STYLE ('',( #74 ) ) ;
#158 = DIRECTION ( 'NONE',  ( 0.000000000000000000, 0.000000000000000000, 1.000000000000000000 ) ) ;
#159 = AXIS2_PLACEMENT_3D ( 'NONE', #26, #241, #102 ) ;
#160 = ORIENTED_EDGE ( 'NONE', *, *, #90, .F. ) ;
#161 = FACE_OUTER_BOUND ( 'NONE', #91, .T. ) ;
#162 = FACE_OUTER_BOUND ( 'NONE', #9, .T. ) ;
#163 = TOROIDAL_SURFACE ( 'NONE', #122, 0.01314999999999987880, 0.001000000000000000021 ) ;
#164 = DIRECTION ( 'NONE',  ( -1.000000000000000000, -0.000000000000000000, -0.000000000000000000 ) ) ;
#165 = VERTEX_POINT ( 'NONE', #128 ) ;
#166 = CARTESIAN_POINT ( 'NONE',  ( 1.209000000000000075, 0.000000000000000000, 0.01085000000000000027 ) ) ;
#167 = EDGE_CURVE ( 'NONE', #135, #135, #193, .T. ) ;
#168 = FACE_OUTER_BOUND ( 'NONE', #41, .T. ) ;
#169 = COLOUR_RGB ( '',0.7921568627450980005, 0.8196078431372548767, 0.9333333333333333481 ) ;
#170 = APPLICATION_CONTEXT ( 'automotive_design' ) ;
#171 =( NAMED_UNIT ( * ) PLANE_ANGLE_UNIT ( ) SI_UNIT ( $, .RADIAN. ) );
#172 = VERTEX_POINT ( 'NONE', #228 ) ;
#173 = SURFACE_STYLE_USAGE ( .BOTH. , #157 ) ;
#174 = ORIENTED_EDGE ( 'NONE', *, *, #167, .T. ) ;
#175 = EDGE_CURVE ( 'NONE', #220, #220, #155, .T. ) ;
#176 = LENGTH_MEASURE_WITH_UNIT ( LENGTH_MEASURE( 0.02539999999999999897 ), #154 );
#177 = AXIS2_PLACEMENT_3D ( 'NONE', #247, #230, #63 ) ;
#178 =( NAMED_UNIT ( * ) PLANE_ANGLE_UNIT ( ) SI_UNIT ( $, .RADIAN. ) );
#179 = ORIENTED_EDGE ( 'NONE', *, *, #6, .F. ) ;
#180 = AXIS2_PLACEMENT_3D ( 'NONE', #146, #119, #121 ) ;
#181 = FACE_OUTER_BOUND ( 'NONE', #201, .T. ) ;
#182 = CARTESIAN_POINT ( 'NONE',  ( 1.209000000000000075, 0.000000000000000000, 0.000000000000000000 ) ) ;
#183 = FACE_OUTER_BOUND ( 'NONE', #114, .T. ) ;
#184 = DIRECTION ( 'NONE',  ( -1.000000000000000000, -0.000000000000000000, -0.000000000000000000 ) ) ;
#185 = ADVANCED_FACE ( 'NONE', ( #62, #249 ), #225, .F. ) ;
#186 = CARTESIAN_POINT ( 'NONE',  ( 1.207779422863406005, 0.000000000000000000, 0.01029999999999999839 ) ) ;
#187 = DIRECTION ( 'NONE',  ( 0.000000000000000000, 0.000000000000000000, 1.000000000000000000 ) ) ;
#188 = PRODUCT_DEFINITION_CONTEXT ( 'detailed design', #101, 'design' ) ;
#189 = DIRECTION ( 'NONE',  ( 0.000000000000000000, 0.000000000000000000, 1.000000000000000000 ) ) ;
#190 = DIMENSIONAL_EXPONENTS ( 1.000000000000000000, 0.000000000000000000, 0.000000000000000000, 0.000000000000000000, 0.000000000000000000, 0.000000000000000000, 0.000000000000000000 ) ;
#191 = VERTEX_POINT ( 'NONE', #213 ) ;
#192 = ORIENTED_EDGE ( 'NONE', *, *, #167, .F. ) ;
#193 = CIRCLE ( 'NONE', #28, 0.01030000000000000013 ) ;
#194 = LENGTH_MEASURE_WITH_UNIT ( LENGTH_MEASURE( 0.02539999999999999897 ), #196 );
#195 = ORIENTED_EDGE ( 'NONE', *, *, #126, .F. ) ;
#196 =( LENGTH_UNIT ( ) NAMED_UNIT ( * ) SI_UNIT ( $, .METRE. ) );
#197 = COLOUR_RGB ( '',0.7921568627450980005, 0.8196078431372548767, 0.9333333333333333481 ) ;
#198 = FACE_OUTER_BOUND ( 'NONE', #71, .T. ) ;
#199 = EDGE_LOOP ( 'NONE', ( #97 ) ) ;
#200 = CIRCLE ( 'NONE', #149, 0.01214999999999987791 ) ;
#201 = EDGE_LOOP ( 'NONE', ( #45 ) ) ;
#202 = MANIFOLD_SOLID_BREP ( 'Revolve3', #118 ) ;
#203 = DIRECTION ( 'NONE',  ( -1.000000000000000000, -0.000000000000000000, -0.000000000000000000 ) ) ;
#204 = DIRECTION ( 'NONE',  ( 0.000000000000000000, 0.000000000000000000, 1.000000000000000000 ) ) ;
#205 = PRODUCT_DEFINITION_FORMATION_WITH_SPECIFIED_SOURCE ( 'ANY', '', #106, .NOT_KNOWN. ) ;
#206 = CARTESIAN_POINT ( 'NONE',  ( 0.0007599342076786377203, 0.000000000000000000, 0.000000000000000000 ) ) ;
#207 = DIRECTION ( 'NONE',  ( -1.000000000000000000, -0.000000000000000000, -0.000000000000000000 ) ) ;
#208 = FILL_AREA_STYLE_COLOUR ( '', #169 ) ;
#209 = ADVANCED_FACE ( 'NONE', ( #231, #212 ), #163, .F. ) ;
#210 = CARTESIAN_POINT ( 'NONE',  ( 1.132043927530899552, 0.000000000000000000, 0.000000000000000000 ) ) ;
#211 =( GEOMETRIC_REPRESENTATION_CONTEXT ( 3 ) GLOBAL_UNCERTAINTY_ASSIGNED_CONTEXT ( ( #68 ) ) GLOBAL_UNIT_ASSIGNED_CONTEXT ( ( #217, #178, #116 ) ) REPRESENTATION_CONTEXT ( 'NONE', 'WORKASPACE' ) );
#212 = FACE_OUTER_BOUND ( 'NONE', #156, .T. ) ;
#213 = CARTESIAN_POINT ( 'NONE',  ( 1.132043927530899552, 0.000000000000000000, 0.01104000000000000987 ) ) ;
#214 = EDGE_LOOP ( 'NONE', ( #94 ) ) ;
#215 = ORIENTED_EDGE ( 'NONE', *, *, #120, .T. ) ;
#216 = TOROIDAL_SURFACE ( 'NONE', #7, 0.01629999999999999852, 0.006000000000000002727 ) ;
#217 =( CONVERSION_BASED_UNIT ( 'INCH', #176 ) LENGTH_UNIT ( ) NAMED_UNIT ( #117 ) );
#218 =( CONVERSION_BASED_UNIT ( 'INCH', #194 ) LENGTH_UNIT ( ) NAMED_UNIT ( #92 ) );
#219 = EDGE_LOOP ( 'NONE', ( #47 ) ) ;
#220 = VERTEX_POINT ( 'NONE', #54 ) ;
#221 = AXIS2_PLACEMENT_3D ( 'NONE', #240, #10, #223 ) ;
#222 = CARTESIAN_POINT ( 'NONE',  ( 1.208279422863405950, 0.000000000000000000, 0.000000000000000000 ) ) ;
#223 = DIRECTION ( 'NONE',  ( 0.000000000000000000, 0.000000000000000000, 1.000000000000000000 ) ) ;
#224 = CARTESIAN_POINT ( 'NONE',  ( 9.561921383994032851E-18, 0.01250000000000000069, 0.000000000000000000 ) ) ;
#225 = TOROIDAL_SURFACE ( 'NONE', #177, 0.01130000000000000102, 0.0009999999999999432086 ) ;
#226 = DIRECTION ( 'NONE',  ( 0.000000000000000000, 0.000000000000000000, 1.000000000000000000 ) ) ;
#227 = CYLINDRICAL_SURFACE ( 'NONE', #221, 0.01029999999999999839 ) ;
#228 = CARTESIAN_POINT ( 'NONE',  ( 1.209999999999999964, 0.000000000000000000, 0.009117949192431121577 ) ) ;
#229 = AXIS2_PLACEMENT_3D ( 'NONE', #5, #203, #103 ) ;
#230 = DIRECTION ( 'NONE',  ( -1.000000000000000000, -0.000000000000000000, -0.000000000000000000 ) ) ;
#231 = FACE_OUTER_BOUND ( 'NONE', #21, .T. ) ;
#232 = DIRECTION ( 'NONE',  ( -1.000000000000000000, -0.000000000000000000, -0.000000000000000000 ) ) ;
#233 = PRESENTATION_LAYER_ASSIGNMENT (  '', '', ( #82 ) ) ;
#234 = CARTESIAN_POINT ( 'NONE',  ( 0.000000000000000000, 0.000000000000000000, 0.000000000000000000 ) ) ;
#235 = EDGE_LOOP ( 'NONE', ( #137 ) ) ;
#236 = MECHANICAL_DESIGN_GEOMETRIC_PRESENTATION_REPRESENTATION (  '', ( #24 ), #11 ) ;
#237 = CARTESIAN_POINT ( 'NONE',  ( 0.0007599342076786376118, 0.000000000000000000, 0.01214999999999987791 ) ) ;
#238 = ORIENTED_EDGE ( 'NONE', *, *, #244, .T. ) ;
#239 = DIRECTION ( 'NONE',  ( 0.000000000000000000, 0.000000000000000000, -1.000000000000000000 ) ) ;
#240 = CARTESIAN_POINT ( 'NONE',  ( 0.000000000000000000, 0.000000000000000000, 0.000000000000000000 ) ) ;
#241 = DIRECTION ( 'NONE',  ( -1.000000000000000000, -0.000000000000000000, -0.000000000000000000 ) ) ;
#242 = FACE_OUTER_BOUND ( 'NONE', #214, .T. ) ;
#243 = CIRCLE ( 'NONE', #99, 0.01043397459621549575 ) ;
#244 = EDGE_CURVE ( 'NONE', #191, #191, #15, .T. ) ;
#245 = DIRECTION ( 'NONE',  ( 0.000000000000000000, 0.000000000000000000, 1.000000000000000000 ) ) ;
#246 = LENGTH_MEASURE_WITH_UNIT ( LENGTH_MEASURE( 0.02539999999999999897 ), #53 );
#247 = CARTESIAN_POINT ( 'NONE',  ( 1.207779422863406005, 0.000000000000000000, 0.000000000000000000 ) ) ;
#248 = AXIS2_PLACEMENT_3D ( 'NONE', #224, #80, #239 ) ;
#249 = FACE_OUTER_BOUND ( 'NONE', #124, .T. ) ;
ENDSEC;
END-ISO-10303-21;
