ISO-10303-21;
HEADER;
FILE_DESCRIPTION (( 'STEP AP214' ),
    '1' );
FILE_NAME ('050-R2520.STEP',
    '2021-01-06T18:50:27',
    ( '' ),
    ( '' ),
    'SwSTEP 2.0',
    'SolidWorks 2020',
    '' );
FILE_SCHEMA (( 'AUTOMOTIVE_DESIGN' ));
ENDSEC;

DATA;
#1 = COLOUR_RGB ( '',1.000000000000000000, 0.6509803921568627638, 0.6313725490196078205 ) ;
#2 = UNCERTAINTY_MEASURE_WITH_UNIT (LENGTH_MEASURE( 1.000000000000000082E-05 ), #353, 'distance_accuracy_value', 'NONE');
#3 = TOROIDAL_SURFACE ( 'NONE', #157, 0.0004000000000000586203, 0.01499999999999999077 ) ;
#4 = DIRECTION ( 'NONE',  ( 0.0000000000000000000, 0.0000000000000000000, 1.000000000000000000 ) ) ;
#5 = CYLINDRICAL_SURFACE ( 'NONE', #302, 0.01540000000000005947 ) ;
#6 = SURFACE_STYLE_FILL_AREA ( #193 ) ;
#7 = DIRECTION ( 'NONE',  ( 1.000000000000000000, -0.0000000000000000000, -0.0000000000000000000 ) ) ;
#8 = SURFACE_SIDE_STYLE ('',( #107 ) ) ;
#9 = AXIS2_PLACEMENT_3D ( 'NONE', #33, #333, #334 ) ;
#10 =( CONVERSION_BASED_UNIT ( 'INCH', #221 ) LENGTH_UNIT ( ) NAMED_UNIT ( #283 ) );
#11 = SURFACE_STYLE_USAGE ( .BOTH. , #88 ) ;
#12 =( CONVERSION_BASED_UNIT ( 'INCH', #254 ) LENGTH_UNIT ( ) NAMED_UNIT ( #37 ) );
#13 = COLOUR_RGB ( '',0.7529411764705882248, 0.7529411764705882248, 0.7529411764705882248 ) ;
#14 = AXIS2_PLACEMENT_3D ( 'NONE', #77, #4, #219 ) ;
#15 = EDGE_LOOP ( 'NONE', ( #208 ) ) ;
#16 =( GEOMETRIC_REPRESENTATION_CONTEXT ( 3 ) GLOBAL_UNCERTAINTY_ASSIGNED_CONTEXT ( ( #149 ) ) GLOBAL_UNIT_ASSIGNED_CONTEXT ( ( #12, #114, #206 ) ) REPRESENTATION_CONTEXT ( 'NONE', 'WORKASPACE' ) );
#17 = PRESENTATION_STYLE_ASSIGNMENT (( #204 ) ) ;
#18 = CARTESIAN_POINT ( 'NONE',  ( -0.2720000000000002971, -2.843400508445722305E-33, 0.0000000000000000000 ) ) ;
#19 = FILL_AREA_STYLE_COLOUR ( '', #1 ) ;
#20 = PRESENTATION_LAYER_ASSIGNMENT (  '', '', ( #222 ) ) ;
#21 = DIRECTION ( 'NONE',  ( -1.000000000000000000, 6.620910154510772451E-18, 1.237438880772287581E-16 ) ) ;
#22 =( CONVERSION_BASED_UNIT ( 'INCH', #158 ) LENGTH_UNIT ( ) NAMED_UNIT ( #40 ) );
#23 = MECHANICAL_DESIGN_GEOMETRIC_PRESENTATION_REPRESENTATION (  '', ( #335 ), #16 ) ;
#24 = EDGE_LOOP ( 'NONE', ( #351 ) ) ;
#25 = FACE_OUTER_BOUND ( 'NONE', #118, .T. ) ;
#26 = ADVANCED_FACE ( 'NONE', ( #52, #161 ), #5, .T. ) ;
#27 = FILL_AREA_STYLE ('',( #276 ) ) ;
#28 =( LENGTH_UNIT ( ) NAMED_UNIT ( * ) SI_UNIT ( $, .METRE. ) );
#29 = AXIS2_PLACEMENT_3D ( 'NONE', #56, #7, #338 ) ;
#30 = UNCERTAINTY_MEASURE_WITH_UNIT (LENGTH_MEASURE( 1.000000000000000082E-05 ), #22, 'distance_accuracy_value', 'NONE');
#31 =( NAMED_UNIT ( * ) PLANE_ANGLE_UNIT ( ) SI_UNIT ( $, .RADIAN. ) );
#32 = PRODUCT_CONTEXT ( 'NONE', #108, 'mechanical' ) ;
#33 = CARTESIAN_POINT ( 'NONE',  ( 1.428000000000001046, 0.0000000000000000000, 0.0000000000000000000 ) ) ;
#34 = UNCERTAINTY_MEASURE_WITH_UNIT (LENGTH_MEASURE( 1.000000000000000082E-05 ), #240, 'distance_accuracy_value', 'NONE');
#35 =( LENGTH_UNIT ( ) NAMED_UNIT ( * ) SI_UNIT ( $, .METRE. ) );
#36 = CIRCLE ( 'NONE', #227, 0.01050000000000000412 ) ;
#37 = DIMENSIONAL_EXPONENTS ( 1.000000000000000000, 0.0000000000000000000, 0.0000000000000000000, 0.0000000000000000000, 0.0000000000000000000, 0.0000000000000000000, 0.0000000000000000000 ) ;
#38 =( LENGTH_UNIT ( ) NAMED_UNIT ( * ) SI_UNIT ( $, .METRE. ) );
#39 =( NAMED_UNIT ( * ) SI_UNIT ( $, .STERADIAN. ) SOLID_ANGLE_UNIT ( ) );
#40 = DIMENSIONAL_EXPONENTS ( 1.000000000000000000, 0.0000000000000000000, 0.0000000000000000000, 0.0000000000000000000, 0.0000000000000000000, 0.0000000000000000000, 0.0000000000000000000 ) ;
#41 = AXIS2_PLACEMENT_3D ( 'NONE', #80, #244, #167 ) ;
#42 = FILL_AREA_STYLE_COLOUR ( '', #162 ) ;
#43 = DIRECTION ( 'NONE',  ( -1.000000000000000000, -0.0000000000000000000, -0.0000000000000000000 ) ) ;
#44 = ORIENTED_EDGE ( 'NONE', *, *, #105, .T. ) ;
#45 = VERTEX_POINT ( 'NONE', #67 ) ;
#46 =( LENGTH_UNIT ( ) NAMED_UNIT ( * ) SI_UNIT ( $, .METRE. ) );
#47 =( LENGTH_UNIT ( ) NAMED_UNIT ( * ) SI_UNIT ( $, .METRE. ) );
#48 = PRESENTATION_LAYER_ASSIGNMENT (  '', '', ( #200 ) ) ;
#49 = ORIENTED_EDGE ( 'NONE', *, *, #137, .T. ) ;
#50 = LENGTH_MEASURE_WITH_UNIT ( LENGTH_MEASURE( 0.02539999999999999897 ), #328 );
#51 = CLOSED_SHELL ( 'NONE', ( #268, #26, #336, #300, #241, #253, #181, #349 ) ) ;
#52 = FACE_OUTER_BOUND ( 'NONE', #295, .T. ) ;
#53 = UNCERTAINTY_MEASURE_WITH_UNIT (LENGTH_MEASURE( 1.000000000000000082E-05 ), #111, 'distance_accuracy_value', 'NONE');
#54 = FILL_AREA_STYLE_COLOUR ( '', #142 ) ;
#55 = SURFACE_STYLE_FILL_AREA ( #238 ) ;
#56 = CARTESIAN_POINT ( 'NONE',  ( 0.02949999999999972436, 0.0000000000000000000, 0.0000000000000000000 ) ) ;
#57 =( GEOMETRIC_REPRESENTATION_CONTEXT ( 3 ) GLOBAL_UNCERTAINTY_ASSIGNED_CONTEXT ( ( #2 ) ) GLOBAL_UNIT_ASSIGNED_CONTEXT ( ( #353, #98, #214 ) ) REPRESENTATION_CONTEXT ( 'NONE', 'WORKASPACE' ) );
#58 = EDGE_LOOP ( 'NONE', ( #176 ) ) ;
#59 = SURFACE_SIDE_STYLE ('',( #6 ) ) ;
#60 = SURFACE_STYLE_FILL_AREA ( #252 ) ;
#61 = COLOUR_RGB ( '',0.7529411764705882248, 0.7529411764705882248, 0.7529411764705882248 ) ;
#62 = VERTEX_POINT ( 'NONE', #93 ) ;
#63 = FACE_OUTER_BOUND ( 'NONE', #128, .T. ) ;
#64 = MECHANICAL_DESIGN_GEOMETRIC_PRESENTATION_REPRESENTATION (  '', ( #222 ), #109 ) ;
#65 = CARTESIAN_POINT ( 'NONE',  ( -0.2720000000000002971, -2.843400508445722305E-33, 0.0000000000000000000 ) ) ;
#66 = ORIENTED_EDGE ( 'NONE', *, *, #245, .F. ) ;
#67 = CARTESIAN_POINT ( 'NONE',  ( -0.2720000000000002971, -0.003800357661523542843, -0.009788119413069056030 ) ) ;
#68 = DIRECTION ( 'NONE',  ( 0.0000000000000000000, 0.0000000000000000000, -1.000000000000000000 ) ) ;
#69 =( LENGTH_UNIT ( ) NAMED_UNIT ( * ) SI_UNIT ( $, .METRE. ) );
#70 =( NAMED_UNIT ( * ) SI_UNIT ( $, .STERADIAN. ) SOLID_ANGLE_UNIT ( ) );
#71 = FACE_OUTER_BOUND ( 'NONE', #184, .T. ) ;
#72 = MECHANICAL_DESIGN_GEOMETRIC_PRESENTATION_REPRESENTATION (  '', ( #75 ), #97 ) ;
#73 = PRESENTATION_STYLE_ASSIGNMENT (( #135 ) ) ;
#74 =( LENGTH_UNIT ( ) NAMED_UNIT ( * ) SI_UNIT ( $, .METRE. ) );
#75 = STYLED_ITEM ( 'NONE', ( #113 ), #349 ) ;
#76 = COLOUR_RGB ( '',0.7529411764705882248, 0.7529411764705882248, 0.7529411764705882248 ) ;
#77 = CARTESIAN_POINT ( 'NONE',  ( 0.0000000000000000000, 0.0000000000000000000, 0.0000000000000000000 ) ) ;
#78 = FACE_OUTER_BOUND ( 'NONE', #24, .T. ) ;
#79 = STYLED_ITEM ( 'NONE', ( #350 ), #181 ) ;
#80 = CARTESIAN_POINT ( 'NONE',  ( 1.414786749075266581, 0.0000000000000000000, 0.0000000000000000000 ) ) ;
#81 = CARTESIAN_POINT ( 'NONE',  ( 0.0000000000000000000, 0.0000000000000000000, 0.0000000000000000000 ) ) ;
#82 = SURFACE_STYLE_USAGE ( .BOTH. , #236 ) ;
#83 = STYLED_ITEM ( 'NONE', ( #165 ), #268 ) ;
#84 = PRESENTATION_STYLE_ASSIGNMENT (( #106 ) ) ;
#85 = SURFACE_SIDE_STYLE ('',( #319 ) ) ;
#86 = FILL_AREA_STYLE ('',( #256 ) ) ;
#87 = EDGE_LOOP ( 'NONE', ( #325 ) ) ;
#88 = SURFACE_SIDE_STYLE ('',( #60 ) ) ;
#89 = CARTESIAN_POINT ( 'NONE',  ( 1.428000000000001046, 0.0000000000000000000, 0.007500000000000411719 ) ) ;
#90 = CARTESIAN_POINT ( 'NONE',  ( -2.731847993664263218E-16, 0.01400000000000000203, 0.0000000000000000000 ) ) ;
#91 = UNCERTAINTY_MEASURE_WITH_UNIT (LENGTH_MEASURE( 1.000000000000000082E-05 ), #308, 'distance_accuracy_value', 'NONE');
#92 = PRESENTATION_LAYER_ASSIGNMENT (  '', '', ( #75 ) ) ;
#93 = CARTESIAN_POINT ( 'NONE',  ( -2.731847993664263218E-16, -1.800887562026934781E-18, 0.01049999999999996943 ) ) ;
#94 = SURFACE_STYLE_USAGE ( .BOTH. , #297 ) ;
#95 = LENGTH_MEASURE_WITH_UNIT ( LENGTH_MEASURE( 0.02539999999999999897 ), #69 );
#96 =( NAMED_UNIT ( * ) SI_UNIT ( $, .STERADIAN. ) SOLID_ANGLE_UNIT ( ) );
#97 =( GEOMETRIC_REPRESENTATION_CONTEXT ( 3 ) GLOBAL_UNCERTAINTY_ASSIGNED_CONTEXT ( ( #134 ) ) GLOBAL_UNIT_ASSIGNED_CONTEXT ( ( #262, #116, #296 ) ) REPRESENTATION_CONTEXT ( 'NONE', 'WORKASPACE' ) );
#98 =( NAMED_UNIT ( * ) PLANE_ANGLE_UNIT ( ) SI_UNIT ( $, .RADIAN. ) );
#99 = EDGE_CURVE ( 'NONE', #45, #45, #329, .T. ) ;
#100 =( NAMED_UNIT ( * ) PLANE_ANGLE_UNIT ( ) SI_UNIT ( $, .RADIAN. ) );
#101 = FACE_OUTER_BOUND ( 'NONE', #346, .T. ) ;
#102 =( GEOMETRIC_REPRESENTATION_CONTEXT ( 3 ) GLOBAL_UNCERTAINTY_ASSIGNED_CONTEXT ( ( #187 ) ) GLOBAL_UNIT_ASSIGNED_CONTEXT ( ( #10, #201, #247 ) ) REPRESENTATION_CONTEXT ( 'NONE', 'WORKASPACE' ) );
#103 = PRESENTATION_STYLE_ASSIGNMENT (( #82 ) ) ;
#104 =( NAMED_UNIT ( * ) PLANE_ANGLE_UNIT ( ) SI_UNIT ( $, .RADIAN. ) );
#105 = EDGE_CURVE ( 'NONE', #62, #62, #36, .T. ) ;
#106 = SURFACE_STYLE_USAGE ( .BOTH. , #85 ) ;
#107 = SURFACE_STYLE_FILL_AREA ( #86 ) ;
#108 = APPLICATION_CONTEXT ( 'automotive_design' ) ;
#109 =( GEOMETRIC_REPRESENTATION_CONTEXT ( 3 ) GLOBAL_UNCERTAINTY_ASSIGNED_CONTEXT ( ( #53 ) ) GLOBAL_UNIT_ASSIGNED_CONTEXT ( ( #111, #104, #279 ) ) REPRESENTATION_CONTEXT ( 'NONE', 'WORKASPACE' ) );
#110 = DIMENSIONAL_EXPONENTS ( 1.000000000000000000, 0.0000000000000000000, 0.0000000000000000000, 0.0000000000000000000, 0.0000000000000000000, 0.0000000000000000000, 0.0000000000000000000 ) ;
#111 =( CONVERSION_BASED_UNIT ( 'INCH', #198 ) LENGTH_UNIT ( ) NAMED_UNIT ( #250 ) );
#112 = EDGE_CURVE ( 'NONE', #126, #126, #138, .T. ) ;
#113 = PRESENTATION_STYLE_ASSIGNMENT (( #11 ) ) ;
#114 =( NAMED_UNIT ( * ) PLANE_ANGLE_UNIT ( ) SI_UNIT ( $, .RADIAN. ) );
#115 = EDGE_LOOP ( 'NONE', ( #203 ) ) ;
#116 =( NAMED_UNIT ( * ) PLANE_ANGLE_UNIT ( ) SI_UNIT ( $, .RADIAN. ) );
#117 = UNCERTAINTY_MEASURE_WITH_UNIT (LENGTH_MEASURE( 1.000000000000000082E-05 ), #155, 'distance_accuracy_value', 'NONE');
#118 = EDGE_LOOP ( 'NONE', ( #246 ) ) ;
#119 = CARTESIAN_POINT ( 'NONE',  ( 0.03556406622399797823, 0.0000000000000000000, -0.01540000000000005947 ) ) ;
#120 = PRODUCT ( '050-R2520', '050-R2520', '', ( #32 ) ) ;
#121 = ORIENTED_EDGE ( 'NONE', *, *, #105, .F. ) ;
#122 = SURFACE_STYLE_USAGE ( .BOTH. , #233 ) ;
#123 = PRESENTATION_LAYER_ASSIGNMENT (  '', '', ( #310 ) ) ;
#124 = FILL_AREA_STYLE ('',( #19 ) ) ;
#125 = ORIENTED_EDGE ( 'NONE', *, *, #99, .F. ) ;
#126 = VERTEX_POINT ( 'NONE', #153 ) ;
#127 = DIRECTION ( 'NONE',  ( 1.000000000000000000, -0.0000000000000000000, -0.0000000000000000000 ) ) ;
#128 = EDGE_LOOP ( 'NONE', ( #234 ) ) ;
#129 = DIRECTION ( 'NONE',  ( 1.000000000000000000, -0.0000000000000000000, -0.0000000000000000000 ) ) ;
#130 = SURFACE_STYLE_FILL_AREA ( #27 ) ;
#131 = FILL_AREA_STYLE ('',( #274 ) ) ;
#132 = PRESENTATION_LAYER_ASSIGNMENT (  '', '', ( #83 ) ) ;
#133 = SURFACE_STYLE_USAGE ( .BOTH. , #331 ) ;
#134 = UNCERTAINTY_MEASURE_WITH_UNIT (LENGTH_MEASURE( 1.000000000000000082E-05 ), #262, 'distance_accuracy_value', 'NONE');
#135 = SURFACE_STYLE_USAGE ( .BOTH. , #239 ) ;
#136 = MANIFOLD_SOLID_BREP ( 'Combine1', #51 ) ;
#137 = EDGE_CURVE ( 'NONE', #179, #179, #258, .T. ) ;
#138 = CIRCLE ( 'NONE', #267, 0.01400000000000000203 ) ;
#139 = DIRECTION ( 'NONE',  ( 1.000000000000000000, -6.620910154510778614E-18, -1.237438880772287827E-16 ) ) ;
#140 = DIMENSIONAL_EXPONENTS ( 1.000000000000000000, 0.0000000000000000000, 0.0000000000000000000, 0.0000000000000000000, 0.0000000000000000000, 0.0000000000000000000, 0.0000000000000000000 ) ;
#141 = CARTESIAN_POINT ( 'NONE',  ( 0.0000000000000000000, 0.0000000000000000000, 0.0000000000000000000 ) ) ;
#142 = COLOUR_RGB ( '',0.7529411764705882248, 0.7529411764705882248, 0.7529411764705882248 ) ;
#143 = FACE_OUTER_BOUND ( 'NONE', #58, .T. ) ;
#144 = DIRECTION ( 'NONE',  ( -1.000000000000000000, -0.0000000000000000000, -0.0000000000000000000 ) ) ;
#145 = PRODUCT_DEFINITION ( 'UNKNOWN', '', #309, #278 ) ;
#146 = DIRECTION ( 'NONE',  ( 0.0000000000000000000, -0.3619388249070040753, -0.9322018488637195954 ) ) ;
#147 =( NAMED_UNIT ( * ) PLANE_ANGLE_UNIT ( ) SI_UNIT ( $, .RADIAN. ) );
#148 = DIRECTION ( 'NONE',  ( 1.000000000000000000, -6.620910154510778614E-18, -1.237438880772287827E-16 ) ) ;
#149 = UNCERTAINTY_MEASURE_WITH_UNIT (LENGTH_MEASURE( 1.000000000000000082E-05 ), #12, 'distance_accuracy_value', 'NONE');
#150 = CARTESIAN_POINT ( 'NONE',  ( 1.414786749075266581, 0.0000000000000000000, 0.01540000000000005947 ) ) ;
#151 = FILL_AREA_STYLE ('',( #263 ) ) ;
#152 = MECHANICAL_DESIGN_GEOMETRIC_PRESENTATION_REPRESENTATION (  '', ( #185 ), #281 ) ;
#153 = CARTESIAN_POINT ( 'NONE',  ( -2.731847993664263218E-16, 0.0000000000000000000, -0.01400000000000000203 ) ) ;
#154 = APPLICATION_CONTEXT ( 'automotive_design' ) ;
#155 =( CONVERSION_BASED_UNIT ( 'INCH', #326 ) LENGTH_UNIT ( ) NAMED_UNIT ( #224 ) );
#156 = FILL_AREA_STYLE ('',( #293 ) ) ;
#157 = AXIS2_PLACEMENT_3D ( 'NONE', #189, #192, #307 ) ;
#158 = LENGTH_MEASURE_WITH_UNIT ( LENGTH_MEASURE( 0.02539999999999999897 ), #47 );
#159 = APPLICATION_PROTOCOL_DEFINITION ( 'draft international standard', 'automotive_design', 1998, #154 ) ;
#160 = PLANE ( 'NONE',  #190 ) ;
#161 = FACE_OUTER_BOUND ( 'NONE', #15, .T. ) ;
#162 = COLOUR_RGB ( '',1.000000000000000000, 0.6509803921568627638, 0.6313725490196078205 ) ;
#163 =( GEOMETRIC_REPRESENTATION_CONTEXT ( 3 ) GLOBAL_UNCERTAINTY_ASSIGNED_CONTEXT ( ( #30 ) ) GLOBAL_UNIT_ASSIGNED_CONTEXT ( ( #22, #230, #96 ) ) REPRESENTATION_CONTEXT ( 'NONE', 'WORKASPACE' ) );
#164 =( NAMED_UNIT ( * ) SI_UNIT ( $, .STERADIAN. ) SOLID_ANGLE_UNIT ( ) );
#165 = PRESENTATION_STYLE_ASSIGNMENT (( #133 ) ) ;
#166 =( CONVERSION_BASED_UNIT ( 'INCH', #186 ) LENGTH_UNIT ( ) NAMED_UNIT ( #140 ) );
#167 = DIRECTION ( 'NONE',  ( 0.0000000000000000000, 0.0000000000000000000, 1.000000000000000000 ) ) ;
#168 =( NAMED_UNIT ( * ) PLANE_ANGLE_UNIT ( ) SI_UNIT ( $, .RADIAN. ) );
#169 = PRESENTATION_LAYER_ASSIGNMENT (  '', '', ( #335 ) ) ;
#170 = DIRECTION ( 'NONE',  ( 0.0000000000000000000, 0.0000000000000000000, 1.000000000000000000 ) ) ;
#171 = DIMENSIONAL_EXPONENTS ( 1.000000000000000000, 0.0000000000000000000, 0.0000000000000000000, 0.0000000000000000000, 0.0000000000000000000, 0.0000000000000000000, 0.0000000000000000000 ) ;
#172 = PRESENTATION_STYLE_ASSIGNMENT (( #340 ) ) ;
#173 = STYLED_ITEM ( 'NONE', ( #17 ), #322 ) ;
#174 = CIRCLE ( 'NONE', #207, 0.01400000000000000203 ) ;
#175 = CARTESIAN_POINT ( 'NONE',  ( -2.731847993664263218E-16, 0.0000000000000000000, 0.0000000000000000000 ) ) ;
#176 = ORIENTED_EDGE ( 'NONE', *, *, #211, .F. ) ;
#177 = VERTEX_POINT ( 'NONE', #228 ) ;
#178 = EDGE_LOOP ( 'NONE', ( #121 ) ) ;
#179 = VERTEX_POINT ( 'NONE', #119 ) ;
#180 = DIRECTION ( 'NONE',  ( 0.0000000000000000000, -0.3619388249070039643, -0.9322018488637195954 ) ) ;
#181 = ADVANCED_FACE ( 'NONE', ( #71, #63 ), #210, .T. ) ;
#182 = DIRECTION ( 'NONE',  ( 1.177506456923163089E-16, 0.3619388249070039643, 0.9322018488637194844 ) ) ;
#183 = PRESENTATION_STYLE_ASSIGNMENT (( #122 ) ) ;
#184 = EDGE_LOOP ( 'NONE', ( #44 ) ) ;
#185 = STYLED_ITEM ( 'NONE', ( #103 ), #26 ) ;
#186 = LENGTH_MEASURE_WITH_UNIT ( LENGTH_MEASURE( 0.02539999999999999897 ), #74 );
#187 = UNCERTAINTY_MEASURE_WITH_UNIT (LENGTH_MEASURE( 1.000000000000000082E-05 ), #10, 'distance_accuracy_value', 'NONE');
#188 = MECHANICAL_DESIGN_GEOMETRIC_PRESENTATION_REPRESENTATION (  '', ( #200 ), #102 ) ;
#189 = CARTESIAN_POINT ( 'NONE',  ( 1.414786749075266581, 0.0000000000000000000, 0.0000000000000000000 ) ) ;
#190 = AXIS2_PLACEMENT_3D ( 'NONE', #90, #242, #303 ) ;
#191 = SURFACE_STYLE_FILL_AREA ( #131 ) ;
#192 = DIRECTION ( 'NONE',  ( -1.000000000000000000, -0.0000000000000000000, -0.0000000000000000000 ) ) ;
#193 = FILL_AREA_STYLE ('',( #54 ) ) ;
#194 = EDGE_LOOP ( 'NONE', ( #261 ) ) ;
#195 = FACE_OUTER_BOUND ( 'NONE', #87, .T. ) ;
#196 = COLOUR_RGB ( '',0.7529411764705882248, 0.7529411764705882248, 0.7529411764705882248 ) ;
#197 = DIRECTION ( 'NONE',  ( 0.0000000000000000000, 0.0000000000000000000, -1.000000000000000000 ) ) ;
#198 = LENGTH_MEASURE_WITH_UNIT ( LENGTH_MEASURE( 0.02539999999999999897 ), #38 );
#199 = DIRECTION ( 'NONE',  ( 0.0000000000000000000, 0.0000000000000000000, 1.000000000000000000 ) ) ;
#200 = STYLED_ITEM ( 'NONE', ( #172 ), #300 ) ;
#201 =( NAMED_UNIT ( * ) PLANE_ANGLE_UNIT ( ) SI_UNIT ( $, .RADIAN. ) );
#202 = SURFACE_STYLE_USAGE ( .BOTH. , #8 ) ;
#203 = ORIENTED_EDGE ( 'NONE', *, *, #317, .F. ) ;
#204 = SURFACE_STYLE_USAGE ( .BOTH. , #235 ) ;
#205 = DIRECTION ( 'NONE',  ( 0.0000000000000000000, 0.0000000000000000000, -1.000000000000000000 ) ) ;
#206 =( NAMED_UNIT ( * ) SI_UNIT ( $, .STERADIAN. ) SOLID_ANGLE_UNIT ( ) );
#207 = AXIS2_PLACEMENT_3D ( 'NONE', #345, #129, #205 ) ;
#208 = ORIENTED_EDGE ( 'NONE', *, *, #245, .T. ) ;
#209 = LENGTH_MEASURE_WITH_UNIT ( LENGTH_MEASURE( 0.02539999999999999897 ), #291 );
#210 = CYLINDRICAL_SURFACE ( 'NONE', #324, 0.01050000000000000412 ) ;
#211 = EDGE_CURVE ( 'NONE', #177, #177, #174, .T. ) ;
#212 = AXIS2_PLACEMENT_3D ( 'NONE', #290, #144, #170 ) ;
#213 = AXIS2_PLACEMENT_3D ( 'NONE', #18, #21, #182 ) ;
#214 =( NAMED_UNIT ( * ) SI_UNIT ( $, .STERADIAN. ) SOLID_ANGLE_UNIT ( ) );
#215 = AXIS2_PLACEMENT_3D ( 'NONE', #318, #139, #146 ) ;
#216 = SHAPE_DEFINITION_REPRESENTATION ( #288, #322 ) ;
#217 = UNCERTAINTY_MEASURE_WITH_UNIT (LENGTH_MEASURE( 1.000000000000000082E-05 ), #226, 'distance_accuracy_value', 'NONE');
#218 = MECHANICAL_DESIGN_GEOMETRIC_PRESENTATION_REPRESENTATION (  '', ( #173 ), #299 ) ;
#219 = DIRECTION ( 'NONE',  ( 1.000000000000000000, 0.0000000000000000000, 0.0000000000000000000 ) ) ;
#220 = PRESENTATION_LAYER_ASSIGNMENT (  '', '', ( #79 ) ) ;
#221 = LENGTH_MEASURE_WITH_UNIT ( LENGTH_MEASURE( 0.02539999999999999897 ), #35 );
#222 = STYLED_ITEM ( 'NONE', ( #84 ), #336 ) ;
#223 = DIRECTION ( 'NONE',  ( 1.000000000000000000, -0.0000000000000000000, -0.0000000000000000000 ) ) ;
#224 = DIMENSIONAL_EXPONENTS ( 1.000000000000000000, 0.0000000000000000000, 0.0000000000000000000, 0.0000000000000000000, 0.0000000000000000000, 0.0000000000000000000, 0.0000000000000000000 ) ;
#225 = DIRECTION ( 'NONE',  ( 1.000000000000000000, -0.0000000000000000000, -0.0000000000000000000 ) ) ;
#226 =( CONVERSION_BASED_UNIT ( 'INCH', #50 ) LENGTH_UNIT ( ) NAMED_UNIT ( #280 ) );
#227 = AXIS2_PLACEMENT_3D ( 'NONE', #248, #311, #284 ) ;
#228 = CARTESIAN_POINT ( 'NONE',  ( 0.02949999999999972436, 0.0000000000000000000, -0.01400000000000000203 ) ) ;
#229 = EDGE_LOOP ( 'NONE', ( #327 ) ) ;
#230 =( NAMED_UNIT ( * ) PLANE_ANGLE_UNIT ( ) SI_UNIT ( $, .RADIAN. ) );
#231 =( GEOMETRIC_REPRESENTATION_CONTEXT ( 3 ) GLOBAL_UNCERTAINTY_ASSIGNED_CONTEXT ( ( #217 ) ) GLOBAL_UNIT_ASSIGNED_CONTEXT ( ( #226, #147, #70 ) ) REPRESENTATION_CONTEXT ( 'NONE', 'WORKASPACE' ) );
#232 = COLOUR_RGB ( '',0.7529411764705882248, 0.7529411764705882248, 0.7529411764705882248 ) ;
#233 = SURFACE_SIDE_STYLE ('',( #298 ) ) ;
#234 = ORIENTED_EDGE ( 'NONE', *, *, #99, .T. ) ;
#235 = SURFACE_SIDE_STYLE ('',( #265 ) ) ;
#236 = SURFACE_SIDE_STYLE ('',( #130 ) ) ;
#237 = CIRCLE ( 'NONE', #41, 0.01540000000000005947 ) ;
#238 = FILL_AREA_STYLE ('',( #270 ) ) ;
#239 = SURFACE_SIDE_STYLE ('',( #191 ) ) ;
#240 =( CONVERSION_BASED_UNIT ( 'INCH', #209 ) LENGTH_UNIT ( ) NAMED_UNIT ( #171 ) );
#241 = ADVANCED_FACE ( 'NONE', ( #294, #25 ), #160, .T. ) ;
#242 = DIRECTION ( 'NONE',  ( -1.000000000000000000, 0.0000000000000000000, 0.0000000000000000000 ) ) ;
#243 = FACE_OUTER_BOUND ( 'NONE', #115, .T. ) ;
#244 = DIRECTION ( 'NONE',  ( -1.000000000000000000, -0.0000000000000000000, -0.0000000000000000000 ) ) ;
#245 = EDGE_CURVE ( 'NONE', #259, #259, #237, .T. ) ;
#246 = ORIENTED_EDGE ( 'NONE', *, *, #112, .F. ) ;
#247 =( NAMED_UNIT ( * ) SI_UNIT ( $, .STERADIAN. ) SOLID_ANGLE_UNIT ( ) );
#248 = CARTESIAN_POINT ( 'NONE',  ( -2.731847993664263218E-16, -1.800887562026934781E-18, -3.365833755700623678E-17 ) ) ;
#249 = AXIS2_PLACEMENT_3D ( 'NONE', #81, #225, #197 ) ;
#250 = DIMENSIONAL_EXPONENTS ( 1.000000000000000000, 0.0000000000000000000, 0.0000000000000000000, 0.0000000000000000000, 0.0000000000000000000, 0.0000000000000000000, 0.0000000000000000000 ) ;
#251 = MECHANICAL_DESIGN_GEOMETRIC_PRESENTATION_REPRESENTATION (  '', ( #285 ), #163 ) ;
#252 = FILL_AREA_STYLE ('',( #42 ) ) ;
#253 = ADVANCED_FACE ( 'NONE', ( #243 ), #273, .F. ) ;
#254 = LENGTH_MEASURE_WITH_UNIT ( LENGTH_MEASURE( 0.02539999999999999897 ), #320 );
#255 = VERTEX_POINT ( 'NONE', #89 ) ;
#256 = FILL_AREA_STYLE_COLOUR ( '', #196 ) ;
#257 = COLOUR_RGB ( '',0.7529411764705882248, 0.7529411764705882248, 0.7529411764705882248 ) ;
#258 = CIRCLE ( 'NONE', #314, 0.01540000000000005947 ) ;
#259 = VERTEX_POINT ( 'NONE', #150 ) ;
#260 =( NAMED_UNIT ( * ) SI_UNIT ( $, .STERADIAN. ) SOLID_ANGLE_UNIT ( ) );
#261 = ORIENTED_EDGE ( 'NONE', *, *, #211, .T. ) ;
#262 =( CONVERSION_BASED_UNIT ( 'INCH', #301 ) LENGTH_UNIT ( ) NAMED_UNIT ( #315 ) );
#263 = FILL_AREA_STYLE_COLOUR ( '', #232 ) ;
#264 = PRESENTATION_LAYER_ASSIGNMENT (  '', '', ( #173 ) ) ;
#265 = SURFACE_STYLE_FILL_AREA ( #156 ) ;
#266 = SURFACE_STYLE_FILL_AREA ( #124 ) ;
#267 = AXIS2_PLACEMENT_3D ( 'NONE', #175, #223, #287 ) ;
#268 = ADVANCED_FACE ( 'NONE', ( #101, #78 ), #3, .T. ) ;
#269 =( NAMED_UNIT ( * ) PLANE_ANGLE_UNIT ( ) SI_UNIT ( $, .RADIAN. ) );
#270 = FILL_AREA_STYLE_COLOUR ( '', #257 ) ;
#271 = COLOUR_RGB ( '',0.7529411764705882248, 0.7529411764705882248, 0.7529411764705882248 ) ;
#272 = PRESENTATION_LAYER_ASSIGNMENT (  '', '', ( #285 ) ) ;
#273 = PLANE ( 'NONE',  #9 ) ;
#274 = FILL_AREA_STYLE_COLOUR ( '', #76 ) ;
#275 =( NAMED_UNIT ( * ) SI_UNIT ( $, .STERADIAN. ) SOLID_ANGLE_UNIT ( ) );
#276 = FILL_AREA_STYLE_COLOUR ( '', #61 ) ;
#277 = LENGTH_MEASURE_WITH_UNIT ( LENGTH_MEASURE( 0.02539999999999999897 ), #28 );
#278 = PRODUCT_DEFINITION_CONTEXT ( 'detailed design', #154, 'design' ) ;
#279 =( NAMED_UNIT ( * ) SI_UNIT ( $, .STERADIAN. ) SOLID_ANGLE_UNIT ( ) );
#280 = DIMENSIONAL_EXPONENTS ( 1.000000000000000000, 0.0000000000000000000, 0.0000000000000000000, 0.0000000000000000000, 0.0000000000000000000, 0.0000000000000000000, 0.0000000000000000000 ) ;
#281 =( GEOMETRIC_REPRESENTATION_CONTEXT ( 3 ) GLOBAL_UNCERTAINTY_ASSIGNED_CONTEXT ( ( #91 ) ) GLOBAL_UNIT_ASSIGNED_CONTEXT ( ( #308, #168, #39 ) ) REPRESENTATION_CONTEXT ( 'NONE', 'WORKASPACE' ) );
#282 = FILL_AREA_STYLE_COLOUR ( '', #271 ) ;
#283 = DIMENSIONAL_EXPONENTS ( 1.000000000000000000, 0.0000000000000000000, 0.0000000000000000000, 0.0000000000000000000, 0.0000000000000000000, 0.0000000000000000000, 0.0000000000000000000 ) ;
#284 = DIRECTION ( 'NONE',  ( 0.0000000000000000000, 0.0000000000000000000, 1.000000000000000000 ) ) ;
#285 = STYLED_ITEM ( 'NONE', ( #183 ), #241 ) ;
#286 = PLANE ( 'NONE',  #213 ) ;
#287 = DIRECTION ( 'NONE',  ( 0.0000000000000000000, 0.0000000000000000000, -1.000000000000000000 ) ) ;
#288 = PRODUCT_DEFINITION_SHAPE ( 'NONE', 'NONE',  #145 ) ;
#289 = MECHANICAL_DESIGN_GEOMETRIC_PRESENTATION_REPRESENTATION (  '', ( #79 ), #347 ) ;
#290 = CARTESIAN_POINT ( 'NONE',  ( 1.428000000000001046, 0.0000000000000000000, 0.0000000000000000000 ) ) ;
#291 =( LENGTH_UNIT ( ) NAMED_UNIT ( * ) SI_UNIT ( $, .METRE. ) );
#292 =( GEOMETRIC_REPRESENTATION_CONTEXT ( 3 ) GLOBAL_UNCERTAINTY_ASSIGNED_CONTEXT ( ( #330 ) ) GLOBAL_UNIT_ASSIGNED_CONTEXT ( ( #166, #31, #275 ) ) REPRESENTATION_CONTEXT ( 'NONE', 'WORKASPACE' ) );
#293 = FILL_AREA_STYLE_COLOUR ( '', #13 ) ;
#294 = FACE_BOUND ( 'NONE', #178, .T. ) ;
#295 = EDGE_LOOP ( 'NONE', ( #49 ) ) ;
#296 =( NAMED_UNIT ( * ) SI_UNIT ( $, .STERADIAN. ) SOLID_ANGLE_UNIT ( ) );
#297 = SURFACE_SIDE_STYLE ('',( #266 ) ) ;
#298 = SURFACE_STYLE_FILL_AREA ( #151 ) ;
#299 =( GEOMETRIC_REPRESENTATION_CONTEXT ( 3 ) GLOBAL_UNCERTAINTY_ASSIGNED_CONTEXT ( ( #34 ) ) GLOBAL_UNIT_ASSIGNED_CONTEXT ( ( #240, #100, #164 ) ) REPRESENTATION_CONTEXT ( 'NONE', 'WORKASPACE' ) );
#300 = ADVANCED_FACE ( 'NONE', ( #305, #306 ), #304, .T. ) ;
#301 = LENGTH_MEASURE_WITH_UNIT ( LENGTH_MEASURE( 0.02539999999999999897 ), #348 );
#302 = AXIS2_PLACEMENT_3D ( 'NONE', #141, #43, #199 ) ;
#303 = DIRECTION ( 'NONE',  ( 0.0000000000000000000, 0.0000000000000000000, 1.000000000000000000 ) ) ;
#304 = CONICAL_SURFACE ( 'NONE', #29, 0.01400000000000000203, 0.2268928027592563845 ) ;
#305 = FACE_OUTER_BOUND ( 'NONE', #229, .T. ) ;
#306 = FACE_BOUND ( 'NONE', #194, .T. ) ;
#307 = DIRECTION ( 'NONE',  ( 0.0000000000000000000, 0.0000000000000000000, 1.000000000000000000 ) ) ;
#308 =( CONVERSION_BASED_UNIT ( 'INCH', #95 ) LENGTH_UNIT ( ) NAMED_UNIT ( #312 ) );
#309 = PRODUCT_DEFINITION_FORMATION_WITH_SPECIFIED_SOURCE ( 'ANY', '', #120, .NOT_KNOWN. ) ;
#310 = STYLED_ITEM ( 'NONE', ( #73 ), #253 ) ;
#311 = DIRECTION ( 'NONE',  ( -1.000000000000000000, 0.0000000000000000000, 0.0000000000000000000 ) ) ;
#312 = DIMENSIONAL_EXPONENTS ( 1.000000000000000000, 0.0000000000000000000, 0.0000000000000000000, 0.0000000000000000000, 0.0000000000000000000, 0.0000000000000000000, 0.0000000000000000000 ) ;
#313 = PRESENTATION_STYLE_ASSIGNMENT (( #202 ) ) ;
#314 = AXIS2_PLACEMENT_3D ( 'NONE', #339, #127, #68 ) ;
#315 = DIMENSIONAL_EXPONENTS ( 1.000000000000000000, 0.0000000000000000000, 0.0000000000000000000, 0.0000000000000000000, 0.0000000000000000000, 0.0000000000000000000, 0.0000000000000000000 ) ;
#316 = FACE_OUTER_BOUND ( 'NONE', #343, .T. ) ;
#317 = EDGE_CURVE ( 'NONE', #255, #255, #352, .T. ) ;
#318 = CARTESIAN_POINT ( 'NONE',  ( -0.2720000000000002971, -2.843400508445722305E-33, 0.0000000000000000000 ) ) ;
#319 = SURFACE_STYLE_FILL_AREA ( #342 ) ;
#320 =( LENGTH_UNIT ( ) NAMED_UNIT ( * ) SI_UNIT ( $, .METRE. ) );
#321 = PRESENTATION_LAYER_ASSIGNMENT (  '', '', ( #185 ) ) ;
#322 = ADVANCED_BREP_SHAPE_REPRESENTATION ( '050-R2520', ( #136, #14 ), #231 ) ;
#323 = PRODUCT_RELATED_PRODUCT_CATEGORY ( 'part', '', ( #120 ) ) ;
#324 = AXIS2_PLACEMENT_3D ( 'NONE', #65, #148, #180 ) ;
#325 = ORIENTED_EDGE ( 'NONE', *, *, #112, .T. ) ;
#326 = LENGTH_MEASURE_WITH_UNIT ( LENGTH_MEASURE( 0.02539999999999999897 ), #46 );
#327 = ORIENTED_EDGE ( 'NONE', *, *, #137, .F. ) ;
#328 =( LENGTH_UNIT ( ) NAMED_UNIT ( * ) SI_UNIT ( $, .METRE. ) );
#329 = CIRCLE ( 'NONE', #215, 0.01050000000000000065 ) ;
#330 = UNCERTAINTY_MEASURE_WITH_UNIT (LENGTH_MEASURE( 1.000000000000000082E-05 ), #166, 'distance_accuracy_value', 'NONE');
#331 = SURFACE_SIDE_STYLE ('',( #55 ) ) ;
#332 = MECHANICAL_DESIGN_GEOMETRIC_PRESENTATION_REPRESENTATION (  '', ( #310 ), #57 ) ;
#333 = DIRECTION ( 'NONE',  ( -1.000000000000000000, 0.0000000000000000000, -0.0000000000000000000 ) ) ;
#334 = DIRECTION ( 'NONE',  ( -0.0000000000000000000, 0.0000000000000000000, 1.000000000000000000 ) ) ;
#335 = STYLED_ITEM ( 'NONE', ( #313 ), #136 ) ;
#336 = ADVANCED_FACE ( 'NONE', ( #143, #195 ), #341, .T. ) ;
#337 = MECHANICAL_DESIGN_GEOMETRIC_PRESENTATION_REPRESENTATION (  '', ( #83 ), #292 ) ;
#338 = DIRECTION ( 'NONE',  ( 0.0000000000000000000, 0.0000000000000000000, -1.000000000000000000 ) ) ;
#339 = CARTESIAN_POINT ( 'NONE',  ( 0.03556406622399797823, 0.0000000000000000000, 0.0000000000000000000 ) ) ;
#340 = SURFACE_STYLE_USAGE ( .BOTH. , #59 ) ;
#341 = CYLINDRICAL_SURFACE ( 'NONE', #249, 0.01400000000000000203 ) ;
#342 = FILL_AREA_STYLE ('',( #282 ) ) ;
#343 = EDGE_LOOP ( 'NONE', ( #125 ) ) ;
#344 = APPLICATION_PROTOCOL_DEFINITION ( 'draft international standard', 'automotive_design', 1998, #108 ) ;
#345 = CARTESIAN_POINT ( 'NONE',  ( 0.02949999999999972436, 0.0000000000000000000, 0.0000000000000000000 ) ) ;
#346 = EDGE_LOOP ( 'NONE', ( #66 ) ) ;
#347 =( GEOMETRIC_REPRESENTATION_CONTEXT ( 3 ) GLOBAL_UNCERTAINTY_ASSIGNED_CONTEXT ( ( #117 ) ) GLOBAL_UNIT_ASSIGNED_CONTEXT ( ( #155, #269, #260 ) ) REPRESENTATION_CONTEXT ( 'NONE', 'WORKASPACE' ) );
#348 =( LENGTH_UNIT ( ) NAMED_UNIT ( * ) SI_UNIT ( $, .METRE. ) );
#349 = ADVANCED_FACE ( 'NONE', ( #316 ), #286, .T. ) ;
#350 = PRESENTATION_STYLE_ASSIGNMENT (( #94 ) ) ;
#351 = ORIENTED_EDGE ( 'NONE', *, *, #317, .T. ) ;
#352 = CIRCLE ( 'NONE', #212, 0.007500000000000411719 ) ;
#353 =( CONVERSION_BASED_UNIT ( 'INCH', #277 ) LENGTH_UNIT ( ) NAMED_UNIT ( #110 ) );
ENDSEC;
END-ISO-10303-21;
