ISO-10303-21;
HEADER;
FILE_DESCRIPTION (( 'STEP AP214' ),
    '1' );
FILE_NAME ('050-SBB160N.STEP',
    '2023-09-12T12:26:53',
    ( '' ),
    ( '' ),
    'SwSTEP 2.0',
    'SolidWorks 2020',
    '' );
FILE_SCHEMA (( 'AUTOMOTIVE_DESIGN' ));
ENDSEC;

DATA;
#1 = DIRECTION ( 'NONE',  ( 0.000000000000000000, 0.000000000000000000, 1.000000000000000000 ) ) ;
#2 = COLOUR_RGB ( '',0.7529411764705882248, 0.7529411764705882248, 0.7529411764705882248 ) ;
#3 = CIRCLE ( 'NONE', #142, 0.01774999999999999842 ) ;
#4 = CARTESIAN_POINT ( 'NONE',  ( 0.7753552980979907527, 0.004939458669399289341, -0.01704887820512822685 ) ) ;
#5 = CARTESIAN_POINT ( 'NONE',  ( 0.7843920750627736416, -0.0008295180503988311676, -0.01774942647079428074 ) ) ;
#6 = TOROIDAL_SURFACE ( 'NONE', #212, -0.03058175675675679772, 0.05018175675675679709 ) ;
#7 = UNCERTAINTY_MEASURE_WITH_UNIT (LENGTH_MEASURE( 1.000000000000000082E-05 ), #117, 'distance_accuracy_value', 'NONE');
#8 = CARTESIAN_POINT ( 'NONE',  ( 0.8420000000000000817, 0.01704887820512821645, -0.004939458669399287606 ) ) ;
#9 = CARTESIAN_POINT ( 'NONE',  ( 0.7709194857156208558, -0.002925269704772069570, -0.01751968438965972874 ) ) ;
#10 = PRESENTATION_STYLE_ASSIGNMENT (( #54 ) ) ;
#11 = DIRECTION ( 'NONE',  ( -1.000000000000000000, -0.000000000000000000, -0.000000000000000000 ) ) ;
#12 = EDGE_LOOP ( 'NONE', ( #165 ) ) ;
#13 = VERTEX_POINT ( 'NONE', #146 ) ;
#14 = ORIENTED_EDGE ( 'NONE', *, *, #121, .T. ) ;
#15 = CARTESIAN_POINT ( 'NONE',  ( 0.000000000000000000, 0.000000000000000000, 0.000000000000000000 ) ) ;
#16 = CARTESIAN_POINT ( 'NONE',  ( 0.8420000000000000817, 0.01704887820512821645, -0.004939458669399287606 ) ) ;
#17 = PRODUCT_DEFINITION_SHAPE ( 'NONE', 'NONE',  #43 ) ;
#18 = FACE_OUTER_BOUND ( 'NONE', #34, .T. ) ;
#19 = ORIENTED_EDGE ( 'NONE', *, *, #109, .T. ) ;
#20 = DIRECTION ( 'NONE',  ( -1.000000000000000000, -0.000000000000000000, -0.000000000000000000 ) ) ;
#21 = AXIS2_PLACEMENT_3D ( 'NONE', #236, #241, #215 ) ;
#22 = ADVANCED_FACE ( 'NONE', ( #127 ), #66, .F. ) ;
#23 = DIRECTION ( 'NONE',  ( -1.000000000000000000, -0.000000000000000000, -0.000000000000000000 ) ) ;
#24 =( NAMED_UNIT ( * ) SI_UNIT ( $, .STERADIAN. ) SOLID_ANGLE_UNIT ( ) );
#25 =( LENGTH_UNIT ( ) NAMED_UNIT ( * ) SI_UNIT ( $, .METRE. ) );
#26 = EDGE_LOOP ( 'NONE', ( #108 ) ) ;
#27 = DIRECTION ( 'NONE',  ( 1.000000000000000000, 0.000000000000000000, 0.000000000000000000 ) ) ;
#28 = DIRECTION ( 'NONE',  ( -1.000000000000000000, -0.000000000000000000, -0.000000000000000000 ) ) ;
#29 = CARTESIAN_POINT ( 'NONE',  ( 0.7769999999999999130, 0.004939458669399289341, -0.01704887820512822338 ) ) ;
#30 = EDGE_CURVE ( 'NONE', #116, #116, #73, .T. ) ;
#31 = CARTESIAN_POINT ( 'NONE',  ( 0.7786205346730482590, -0.004940835056039352170, -0.01704847943408965144 ) ) ;
#32 = ORIENTED_EDGE ( 'NONE', *, *, #30, .T. ) ;
#33 = FACE_OUTER_BOUND ( 'NONE', #281, .T. ) ;
#34 = EDGE_LOOP ( 'NONE', ( #32 ) ) ;
#35 = COLOUR_RGB ( '',0.7529411764705882248, 0.7529411764705882248, 0.7529411764705882248 ) ;
#36 = CARTESIAN_POINT ( 'NONE',  ( 0.9180725929814588238, 0.000000000000000000, 0.01774999999999999495 ) ) ;
#37 = ORIENTED_EDGE ( 'NONE', *, *, #64, .F. ) ;
#38 = DIRECTION ( 'NONE',  ( 0.000000000000000000, 0.000000000000000000, -1.000000000000000000 ) ) ;
#39 = DIRECTION ( 'NONE',  ( 0.000000000000000000, 0.000000000000000000, 1.000000000000000000 ) ) ;
#40 = CARTESIAN_POINT ( 'NONE',  ( 0.9473349364905375714, 0.000000000000000000, 0.01499999999999964209 ) ) ;
#41 = CARTESIAN_POINT ( 'NONE',  ( 0.8346030985091761334, 0.01775034164589799068, 0.0008137156707178359915 ) ) ;
#42 = DIRECTION ( 'NONE',  ( 1.000000000000000000, 0.000000000000000000, 0.000000000000000000 ) ) ;
#43 = PRODUCT_DEFINITION ( 'UNKNOWN', '', #205, #136 ) ;
#44 = DIRECTION ( 'NONE',  ( 0.000000000000000000, -1.000000000000000000, 0.000000000000000000 ) ) ;
#45 = ADVANCED_FACE ( 'NONE', ( #283 ), #173, .F. ) ;
#46 = AXIS2_PLACEMENT_3D ( 'NONE', #15, #80, #60 ) ;
#47 = CARTESIAN_POINT ( 'NONE',  ( 0.8346085283213904304, 0.01774931205722005134, -0.001649687379604082918 ) ) ;
#48 = FILL_AREA_STYLE_COLOUR ( '', #35 ) ;
#49 = DIRECTION ( 'NONE',  ( -1.000000000000000000, 0.000000000000000000, -0.000000000000000000 ) ) ;
#50 = CARTESIAN_POINT ( 'NONE',  ( 0.7737155032951412714, 0.004603275558324929247, -0.01716122542381041949 ) ) ;
#51 = MECHANICAL_DESIGN_GEOMETRIC_PRESENTATION_REPRESENTATION (  '', ( #171 ), #194 ) ;
#52 = ADVANCED_BREP_SHAPE_REPRESENTATION ( '050-SBB160N', ( #150, #220 ), #238 ) ;
#53 = CARTESIAN_POINT ( 'NONE',  ( 0.7830731966040098690, -0.002930011413977835245, -0.01751857922979694129 ) ) ;
#54 = SURFACE_STYLE_USAGE ( .BOTH. , #270 ) ;
#55 = CARTESIAN_POINT ( 'NONE',  ( 0.9519999999999999574, 0.000000000000000000, 0.000000000000000000 ) ) ;
#56 = CARTESIAN_POINT ( 'NONE',  ( 0.7843980789719016133, 0.0008047890370918911723, -0.01775056491618920082 ) ) ;
#57 = ORIENTED_EDGE ( 'NONE', *, *, #164, .F. ) ;
#58 = PLANE ( 'NONE',  #120 ) ;
#59 = ORIENTED_EDGE ( 'NONE', *, *, #72, .F. ) ;
#60 = DIRECTION ( 'NONE',  ( 0.000000000000000000, 0.000000000000000000, 1.000000000000000000 ) ) ;
#61 = EDGE_LOOP ( 'NONE', ( #287 ) ) ;
#62 = VERTEX_POINT ( 'NONE', #102 ) ;
#63 = CARTESIAN_POINT ( 'NONE',  ( 0.8358695689691134634, 0.01750474165483899974, -0.003046608525894531610 ) ) ;
#64 = EDGE_CURVE ( 'NONE', #258, #258, #233, .T. ) ;
#65 = LENGTH_MEASURE_WITH_UNIT ( LENGTH_MEASURE( 0.02539999999999999897 ), #163 );
#66 = PLANE ( 'NONE',  #185 ) ;
#67 =( NAMED_UNIT ( * ) SI_UNIT ( $, .STERADIAN. ) SOLID_ANGLE_UNIT ( ) );
#68 = CARTESIAN_POINT ( 'NONE',  ( 0.8403552980979909215, 0.01704887820512821991, -0.004939458669399288474 ) ) ;
#69 = CARTESIAN_POINT ( 'NONE',  ( 0.8387155946057048839, 0.01716109105877459268, 0.004604279745344620409 ) ) ;
#70 = CARTESIAN_POINT ( 'NONE',  ( 0.9220000000000000417, 0.000000000000000000, 0.000000000000000000 ) ) ;
#71 = FACE_OUTER_BOUND ( 'NONE', #188, .T. ) ;
#72 = EDGE_CURVE ( 'NONE', #261, #261, #222, .T. ) ;
#73 = CIRCLE ( 'NONE', #242, 0.01774999999999999495 ) ;
#74 = FILL_AREA_STYLE ('',( #96 ) ) ;
#75 = EDGE_LOOP ( 'NONE', ( #170 ) ) ;
#76 = CARTESIAN_POINT ( 'NONE',  ( 0.7802906757940716309, 0.004603376859490166707, -0.01716152219139427740 ) ) ;
#77 = EDGE_LOOP ( 'NONE', ( #59 ) ) ;
#78 = CARTESIAN_POINT ( 'NONE',  ( 3.603835703608088792E-17, 0.01774999999999999842, 0.000000000000000000 ) ) ;
#79 = MECHANICAL_DESIGN_GEOMETRIC_PRESENTATION_REPRESENTATION (  '', ( #253 ), #265 ) ;
#80 = DIRECTION ( 'NONE',  ( -1.000000000000000000, -0.000000000000000000, -0.000000000000000000 ) ) ;
#81 = DIRECTION ( 'NONE',  ( -1.000000000000000000, -0.000000000000000000, -0.000000000000000000 ) ) ;
#82 = ORIENTED_EDGE ( 'NONE', *, *, #216, .T. ) ;
#83 = VERTEX_POINT ( 'NONE', #40 ) ;
#84 = CARTESIAN_POINT ( 'NONE',  ( 0.8452671813046664928, 0.01715949374164661353, 0.004609982282424922306 ) ) ;
#85 = VERTEX_POINT ( 'NONE', #206 ) ;
#86 = EDGE_LOOP ( 'NONE', ( #57 ) ) ;
#87 = PRODUCT_CONTEXT ( 'NONE', #189, 'mechanical' ) ;
#88 = DIRECTION ( 'NONE',  ( 0.000000000000000000, 0.000000000000000000, 1.000000000000000000 ) ) ;
#89 = CONICAL_SURFACE ( 'NONE', #240, 0.01625000000000000056, 0.2617993877991502960 ) ;
#90 = CARTESIAN_POINT ( 'NONE',  ( 0.000000000000000000, 0.000000000000000000, 0.000000000000000000 ) ) ;
#91 = DIRECTION ( 'NONE',  ( -0.000000000000000000, 0.000000000000000000, 1.000000000000000000 ) ) ;
#92 = PRESENTATION_STYLE_ASSIGNMENT (( #151 ) ) ;
#93 = DIRECTION ( 'NONE',  ( 0.000000000000000000, 0.000000000000000000, 1.000000000000000000 ) ) ;
#94 = CARTESIAN_POINT ( 'NONE',  ( 0.8349199426819365888, 0.01768833256484595232, 0.001618466877744119620 ) ) ;
#95 = AXIS2_PLACEMENT_3D ( 'NONE', #255, #237, #100 ) ;
#96 = FILL_AREA_STYLE_COLOUR ( '', #2 ) ;
#97 =( NAMED_UNIT ( * ) PLANE_ANGLE_UNIT ( ) SI_UNIT ( $, .RADIAN. ) );
#98 = CARTESIAN_POINT ( 'NONE',  ( 0.7737155946057048261, -0.004604279745344617807, -0.01716109105877459268 ) ) ;
#99 = FACE_BOUND ( 'NONE', #186, .T. ) ;
#100 = DIRECTION ( 'NONE',  ( 0.000000000000000000, 0.000000000000000000, -1.000000000000000000 ) ) ;
#101 = ORIENTED_EDGE ( 'NONE', *, *, #64, .T. ) ;
#102 = CARTESIAN_POINT ( 'NONE',  ( 0.2829999999999999738, 0.000000000000000000, 0.01774999999999999842 ) ) ;
#103 = ORIENTED_EDGE ( 'NONE', *, *, #121, .F. ) ;
#104 = CARTESIAN_POINT ( 'NONE',  ( 0.000000000000000000, 0.000000000000000000, 0.000000000000000000 ) ) ;
#105 = CARTESIAN_POINT ( 'NONE',  ( 0.8387155032951412181, 0.01716122542381042296, -0.004603275558324932716 ) ) ;
#106 =( NAMED_UNIT ( * ) PLANE_ANGLE_UNIT ( ) SI_UNIT ( $, .RADIAN. ) );
#107 = CIRCLE ( 'NONE', #272, 0.01625000000000000056 ) ;
#108 = ORIENTED_EDGE ( 'NONE', *, *, #192, .T. ) ;
#109 = EDGE_CURVE ( 'NONE', #83, #83, #217, .T. ) ;
#110 = CARTESIAN_POINT ( 'NONE',  ( 0.8403603280737291792, 0.01704927932382358652, 0.004938074179658189997 ) ) ;
#111 = CARTESIAN_POINT ( 'NONE',  ( 0.7699199426819364200, -0.001618466877744061724, -0.01768833256484595232 ) ) ;
#112 = CARTESIAN_POINT ( 'NONE',  ( 0.000000000000000000, 0.000000000000000000, 0.000000000000000000 ) ) ;
#113 = CARTESIAN_POINT ( 'NONE',  ( 0.7802671813046661020, -0.004609982282424909296, -0.01715949374164661353 ) ) ;
#114 = UNCERTAINTY_MEASURE_WITH_UNIT (LENGTH_MEASURE( 1.000000000000000082E-05 ), #288, 'distance_accuracy_value', 'NONE');
#115 = CARTESIAN_POINT ( 'NONE',  ( 0.7696085283213904837, 0.001649687379604064270, -0.01774931205722005481 ) ) ;
#116 = VERTEX_POINT ( 'NONE', #36 ) ;
#117 =( CONVERSION_BASED_UNIT ( 'INCH', #65 ) LENGTH_UNIT ( ) NAMED_UNIT ( #274 ) );
#118 = CONICAL_SURFACE ( 'NONE', #209, 0.01499999999999964209, 0.6108652381980310686 ) ;
#119 = ORIENTED_EDGE ( 'NONE', *, *, #30, .F. ) ;
#120 = AXIS2_PLACEMENT_3D ( 'NONE', #78, #42, #38 ) ;
#121 = EDGE_CURVE ( 'NONE', #62, #62, #129, .T. ) ;
#122 = CYLINDRICAL_SURFACE ( 'NONE', #46, 0.01499999999999964209 ) ;
#123 = CARTESIAN_POINT ( 'NONE',  ( 0.8490778642161032064, 0.01768801576496736513, -0.001619326406379657064 ) ) ;
#124 = VERTEX_POINT ( 'NONE', #232 ) ;
#125 = CARTESIAN_POINT ( 'NONE',  ( 0.8436447019020090199, 0.01704887820512821645, -0.004939458669399287606 ) ) ;
#126 = CARTESIAN_POINT ( 'NONE',  ( 0.3099999999999999978, 0.000000000000000000, 0.000000000000000000 ) ) ;
#127 = FACE_OUTER_BOUND ( 'NONE', #61, .T. ) ;
#128 = APPLICATION_PROTOCOL_DEFINITION ( 'draft international standard', 'automotive_design', 1998, #189 ) ;
#129 = CIRCLE ( 'NONE', #247, 0.01774999999999999842 ) ;
#130 = ORIENTED_EDGE ( 'NONE', *, *, #149, .T. ) ;
#131 = SURFACE_STYLE_FILL_AREA ( #264 ) ;
#132 = CARTESIAN_POINT ( 'NONE',  ( 0.8419999999999999707, 0.03899999999999999994, 0.000000000000000000 ) ) ;
#133 = CARTESIAN_POINT ( 'NONE',  ( 0.7753603280737296766, -0.004938074179658183058, -0.01704927932382358652 ) ) ;
#134 = LENGTH_MEASURE_WITH_UNIT ( LENGTH_MEASURE( 0.02539999999999999897 ), #223 );
#135 = CYLINDRICAL_SURFACE ( 'NONE', #248, 0.01774999999999999842 ) ;
#136 = PRODUCT_DEFINITION_CONTEXT ( 'detailed design', #199, 'design' ) ;
#137 = DIRECTION ( 'NONE',  ( 1.000000000000000000, 0.000000000000000000, 0.000000000000000000 ) ) ;
#138 = EDGE_LOOP ( 'NONE', ( #143 ) ) ;
#139 = DIRECTION ( 'NONE',  ( -1.000000000000000000, -0.000000000000000000, -0.000000000000000000 ) ) ;
#140 = EDGE_LOOP ( 'NONE', ( #37 ) ) ;
#141 = FACE_OUTER_BOUND ( 'NONE', #234, .T. ) ;
#142 = AXIS2_PLACEMENT_3D ( 'NONE', #126, #20, #235 ) ;
#143 = ORIENTED_EDGE ( 'NONE', *, *, #216, .F. ) ;
#144 = CARTESIAN_POINT ( 'NONE',  ( 7.127636798026794583E-17, 0.000000000000000000, 0.01774999999999999842 ) ) ;
#145 = CARTESIAN_POINT ( 'NONE',  ( 0.8493980789719012270, 0.01775056491618919735, -0.0008047890370918822818 ) ) ;
#146 = CARTESIAN_POINT ( 'NONE',  ( 0.8419999999999999707, 0.01704887820512822338, -0.004939458669399288474 ) ) ;
#147 = CARTESIAN_POINT ( 'NONE',  ( 0.8480910872521675303, 0.01752141553486383230, -0.002913437379928495406 ) ) ;
#148 = FACE_OUTER_BOUND ( 'NONE', #138, .T. ) ;
#149 = EDGE_CURVE ( 'NONE', #13, #13, #153, .T. ) ;
#150 = MANIFOLD_SOLID_BREP ( 'Revolve2', #214 ) ;
#151 = SURFACE_STYLE_USAGE ( .BOTH. , #196 ) ;
#152 = DIRECTION ( 'NONE',  ( -1.000000000000000000, -0.000000000000000000, -0.000000000000000000 ) ) ;
#153 = B_SPLINE_CURVE_WITH_KNOTS ( 'NONE', 3,
 ( #16, #68, #105, #63, #47, #41, #94, #219, #289, #69, #110, #177, #84, #200, #285, #154, #269, #145, #123, #147, #168, #260, #125, #8 ),
 .UNSPECIFIED., .T., .F.,
 ( 4, 2, 2, 2, 2, 2, 2, 2, 2, 2, 2, 4 ),
 ( 0.000000000000000000, 0.0001238131369897228849, 0.0002476262739794457698, 0.0003095328424743072258, 0.0003714394109691686817, 0.0004952525479588915395, 0.0006190656849486144515, 0.0006809722534434713538, 0.0007428788219383283646, 0.0008047853904331852670, 0.0008666919589280422777, 0.0009905050959177470835 ),
 .UNSPECIFIED. ) ;
#154 = CARTESIAN_POINT ( 'NONE',  ( 0.8490672530748342162, 0.01768604524303789630, 0.001639935601762967932 ) ) ;
#155 = DIRECTION ( 'NONE',  ( -1.000000000000000000, -0.000000000000000000, -0.000000000000000000 ) ) ;
#156 = SURFACE_STYLE_FILL_AREA ( #74 ) ;
#157 = FACE_OUTER_BOUND ( 'NONE', #256, .T. ) ;
#158 = CARTESIAN_POINT ( 'NONE',  ( 0.7708695689691132946, 0.003046608525894522936, -0.01750474165483899627 ) ) ;
#159 = ADVANCED_FACE ( 'NONE', ( #71, #183 ), #118, .T. ) ;
#160 = DIRECTION ( 'NONE',  ( -1.000000000000000000, -0.000000000000000000, -0.000000000000000000 ) ) ;
#161 = SPHERICAL_SURFACE ( 'NONE', #95, 0.02249999999999996447 ) ;
#162 = PRESENTATION_LAYER_ASSIGNMENT (  '', '', ( #253 ) ) ;
#163 =( LENGTH_UNIT ( ) NAMED_UNIT ( * ) SI_UNIT ( $, .METRE. ) );
#164 = EDGE_CURVE ( 'NONE', #124, #124, #230, .T. ) ;
#165 = ORIENTED_EDGE ( 'NONE', *, *, #109, .F. ) ;
#166 = PRESENTATION_LAYER_ASSIGNMENT (  '', '', ( #171 ) ) ;
#167 = DIRECTION ( 'NONE',  ( 0.000000000000000000, 0.000000000000000000, 1.000000000000000000 ) ) ;
#168 = CARTESIAN_POINT ( 'NONE',  ( 0.8474343202536555042, 0.01742094560969309827, -0.003425603548743908974 ) ) ;
#169 = VERTEX_POINT ( 'NONE', #277 ) ;
#170 = ORIENTED_EDGE ( 'NONE', *, *, #149, .F. ) ;
#171 = STYLED_ITEM ( 'NONE', ( #92 ), #52 ) ;
#172 = ADVANCED_FACE ( 'NONE', ( #271, #157 ), #135, .T. ) ;
#173 = SPHERICAL_SURFACE ( 'NONE', #259, 0.02249999999999996447 ) ;
#174 = DIMENSIONAL_EXPONENTS ( 1.000000000000000000, 0.000000000000000000, 0.000000000000000000, 0.000000000000000000, 0.000000000000000000, 0.000000000000000000, 0.000000000000000000 ) ;
#175 = DIRECTION ( 'NONE',  ( 0.000000000000000000, -0.000000000000000000, -1.000000000000000000 ) ) ;
#176 = UNCERTAINTY_MEASURE_WITH_UNIT (LENGTH_MEASURE( 1.000000000000000082E-05 ), #245, 'distance_accuracy_value', 'NONE');
#177 = CARTESIAN_POINT ( 'NONE',  ( 0.8436205346730484278, 0.01704847943408965491, 0.004940835056039359109 ) ) ;
#178 = CARTESIAN_POINT ( 'NONE',  ( 0.7824130002894686964, -0.003440396403731140178, -0.01741796739328857480 ) ) ;
#179 = CARTESIAN_POINT ( 'NONE',  ( 0.7769999999999999130, 0.004939458669399289341, -0.01704887820512822338 ) ) ;
#180 = DIMENSIONAL_EXPONENTS ( 1.000000000000000000, 0.000000000000000000, 0.000000000000000000, 0.000000000000000000, 0.000000000000000000, 0.000000000000000000, 0.000000000000000000 ) ;
#181 = ADVANCED_FACE ( 'NONE', ( #204, #273 ), #89, .T. ) ;
#182 = CARTESIAN_POINT ( 'NONE',  ( 0.7830910872521676946, 0.002913437379928498442, -0.01752141553486383924 ) ) ;
#183 = FACE_BOUND ( 'NONE', #229, .T. ) ;
#184 = FACE_OUTER_BOUND ( 'NONE', #77, .T. ) ;
#185 = AXIS2_PLACEMENT_3D ( 'NONE', #218, #49, #91 ) ;
#186 = EDGE_LOOP ( 'NONE', ( #207 ) ) ;
#187 =( NAMED_UNIT ( * ) PLANE_ANGLE_UNIT ( ) SI_UNIT ( $, .RADIAN. ) );
#188 = EDGE_LOOP ( 'NONE', ( #119 ) ) ;
#189 = APPLICATION_CONTEXT ( 'automotive_design' ) ;
#190 = CARTESIAN_POINT ( 'NONE',  ( 0.9220000000000000417, 0.000000000000000000, 0.000000000000000000 ) ) ;
#191 = CARTESIAN_POINT ( 'NONE',  ( 0.9220000000000000417, 0.000000000000000000, 0.01499999999999964209 ) ) ;
#192 = EDGE_CURVE ( 'NONE', #85, #85, #107, .T. ) ;
#193 = CARTESIAN_POINT ( 'NONE',  ( 0.9180725929814588238, 0.000000000000000000, 0.000000000000000000 ) ) ;
#194 =( GEOMETRIC_REPRESENTATION_CONTEXT ( 3 ) GLOBAL_UNCERTAINTY_ASSIGNED_CONTEXT ( ( #114 ) ) GLOBAL_UNIT_ASSIGNED_CONTEXT ( ( #288, #106, #67 ) ) REPRESENTATION_CONTEXT ( 'NONE', 'WORKASPACE' ) );
#195 = ADVANCED_FACE ( 'NONE', ( #282 ), #58, .F. ) ;
#196 = SURFACE_SIDE_STYLE ('',( #131 ) ) ;
#197 = EDGE_LOOP ( 'NONE', ( #130 ) ) ;
#198 = CARTESIAN_POINT ( 'NONE',  ( 0.2829999999999999738, 0.000000000000000000, 0.000000000000000000 ) ) ;
#199 = APPLICATION_CONTEXT ( 'automotive_design' ) ;
#200 = CARTESIAN_POINT ( 'NONE',  ( 0.8474130002894685321, 0.01741796739328857133, 0.003440396403731153623 ) ) ;
#201 = CARTESIAN_POINT ( 'NONE',  ( 0.7715759424209480688, -0.003432501332496006984, -0.01741954130215973839 ) ) ;
#202 = CARTESIAN_POINT ( 'NONE',  ( 0.7840672530748339364, -0.001639935601762978557, -0.01768604524303788936 ) ) ;
#203 = ADVANCED_FACE ( 'NONE', ( #99, #148, #18, #210 ), #257, .T. ) ;
#204 = FACE_BOUND ( 'NONE', #12, .T. ) ;
#205 = PRODUCT_DEFINITION_FORMATION_WITH_SPECIFIED_SOURCE ( 'ANY', '', #251, .NOT_KNOWN. ) ;
#206 = CARTESIAN_POINT ( 'NONE',  ( 0.9519999999999999574, 0.000000000000000000, 0.01625000000000000056 ) ) ;
#207 = ORIENTED_EDGE ( 'NONE', *, *, #164, .T. ) ;
#208 = AXIS2_PLACEMENT_3D ( 'NONE', #190, #239, #267 ) ;
#209 = AXIS2_PLACEMENT_3D ( 'NONE', #70, #155, #244 ) ;
#210 = FACE_BOUND ( 'NONE', #75, .T. ) ;
#211 = ADVANCED_FACE ( 'NONE', ( #276 ), #161, .F. ) ;
#212 = AXIS2_PLACEMENT_3D ( 'NONE', #231, #139, #227 ) ;
#213 = DIRECTION ( 'NONE',  ( 0.000000000000000000, 0.000000000000000000, 1.000000000000000000 ) ) ;
#214 = CLOSED_SHELL ( 'NONE', ( #203, #195, #22, #181, #246, #159, #228, #172, #45, #211 ) ) ;
#215 = DIRECTION ( 'NONE',  ( 0.000000000000000000, 0.000000000000000000, 1.000000000000000000 ) ) ;
#216 = EDGE_CURVE ( 'NONE', #169, #169, #3, .T. ) ;
#217 = CIRCLE ( 'NONE', #21, 0.01499999999999964209 ) ;
#218 = CARTESIAN_POINT ( 'NONE',  ( 0.9519999999999999574, 0.01625000000000000056, 0.000000000000000000 ) ) ;
#219 = CARTESIAN_POINT ( 'NONE',  ( 0.8359194857156205805, 0.01751968438965972527, 0.002925269704772117275 ) ) ;
#220 = AXIS2_PLACEMENT_3D ( 'NONE', #90, #88, #27 ) ;
#221 =( NAMED_UNIT ( * ) SI_UNIT ( $, .STERADIAN. ) SOLID_ANGLE_UNIT ( ) );
#222 = CIRCLE ( 'NONE', #208, 0.01499999999999964209 ) ;
#223 =( LENGTH_UNIT ( ) NAMED_UNIT ( * ) SI_UNIT ( $, .METRE. ) );
#224 = DIRECTION ( 'NONE',  ( 0.000000000000000000, 0.000000000000000000, 1.000000000000000000 ) ) ;
#225 = CARTESIAN_POINT ( 'NONE',  ( 0.7696030985091760757, -0.0008137156707178496524, -0.01775034164589798721 ) ) ;
#226 = CARTESIAN_POINT ( 'NONE',  ( 0.9519999999999999574, 0.000000000000000000, 0.000000000000000000 ) ) ;
#227 = DIRECTION ( 'NONE',  ( 0.000000000000000000, 0.000000000000000000, 1.000000000000000000 ) ) ;
#228 = ADVANCED_FACE ( 'NONE', ( #141, #279 ), #6, .T. ) ;
#229 = EDGE_LOOP ( 'NONE', ( #243 ) ) ;
#230 = B_SPLINE_CURVE_WITH_KNOTS ( 'NONE', 3,
 ( #29, #4, #50, #158, #115, #225, #111, #9, #201, #98, #133, #31, #113, #178, #53, #202, #5, #56, #250, #182, #275, #76, #249, #179 ),
 .UNSPECIFIED., .T., .F.,
 ( 4, 2, 2, 2, 2, 2, 2, 2, 2, 2, 2, 4 ),
 ( 0.000000000000000000, 0.0001238131369897220446, 0.0002476262739794440892, 0.0003095328424743051116, 0.0003714394109691661339, 0.0004952525479588880701, 0.0006190656849486098979, 0.0006809722534434664749, 0.0007428788219383229436, 0.0008047853904331794123, 0.0008666919589280357725, 0.0009905050959177486014 ),
 .UNSPECIFIED. ) ;
#231 = CARTESIAN_POINT ( 'NONE',  ( 0.2964999999999999858, 0.000000000000000000, 0.000000000000000000 ) ) ;
#232 = CARTESIAN_POINT ( 'NONE',  ( 0.7769999999999999130, 0.004939458669399288474, -0.01704887820512822338 ) ) ;
#233 = CIRCLE ( 'NONE', #284, 0.01774999999999999842 ) ;
#234 = EDGE_LOOP ( 'NONE', ( #103 ) ) ;
#235 = DIRECTION ( 'NONE',  ( 0.000000000000000000, 0.000000000000000000, 1.000000000000000000 ) ) ;
#236 = CARTESIAN_POINT ( 'NONE',  ( 0.9473349364905375714, 0.000000000000000000, 0.000000000000000000 ) ) ;
#237 = DIRECTION ( 'NONE',  ( 0.000000000000000000, -1.000000000000000000, 0.000000000000000000 ) ) ;
#238 =( GEOMETRIC_REPRESENTATION_CONTEXT ( 3 ) GLOBAL_UNCERTAINTY_ASSIGNED_CONTEXT ( ( #7 ) ) GLOBAL_UNIT_ASSIGNED_CONTEXT ( ( #117, #187, #24 ) ) REPRESENTATION_CONTEXT ( 'NONE', 'WORKASPACE' ) );
#239 = DIRECTION ( 'NONE',  ( -1.000000000000000000, -0.000000000000000000, -0.000000000000000000 ) ) ;
#240 = AXIS2_PLACEMENT_3D ( 'NONE', #55, #137, #252 ) ;
#241 = DIRECTION ( 'NONE',  ( -1.000000000000000000, -0.000000000000000000, -0.000000000000000000 ) ) ;
#242 = AXIS2_PLACEMENT_3D ( 'NONE', #193, #152, #39 ) ;
#243 = ORIENTED_EDGE ( 'NONE', *, *, #72, .T. ) ;
#244 = DIRECTION ( 'NONE',  ( 0.000000000000000000, 0.000000000000000000, 1.000000000000000000 ) ) ;
#245 =( CONVERSION_BASED_UNIT ( 'INCH', #134 ) LENGTH_UNIT ( ) NAMED_UNIT ( #174 ) );
#246 = ADVANCED_FACE ( 'NONE', ( #184, #33 ), #122, .T. ) ;
#247 = AXIS2_PLACEMENT_3D ( 'NONE', #198, #23, #93 ) ;
#248 = AXIS2_PLACEMENT_3D ( 'NONE', #112, #160, #224 ) ;
#249 = CARTESIAN_POINT ( 'NONE',  ( 0.7786447019020089622, 0.004939458669399289341, -0.01704887820512821991 ) ) ;
#250 = CARTESIAN_POINT ( 'NONE',  ( 0.7840778642161029266, 0.001619326406379659015, -0.01768801576496736513 ) ) ;
#251 = PRODUCT ( '050-SBB160N', '050-SBB160N', '', ( #87 ) ) ;
#252 = DIRECTION ( 'NONE',  ( 0.000000000000000000, 0.000000000000000000, -1.000000000000000000 ) ) ;
#253 = STYLED_ITEM ( 'NONE', ( #10 ), #150 ) ;
#254 = AXIS2_PLACEMENT_3D ( 'NONE', #104, #81, #167 ) ;
#255 = CARTESIAN_POINT ( 'NONE',  ( 0.7769999999999999130, 0.000000000000000000, -0.03899999999999999994 ) ) ;
#256 = EDGE_LOOP ( 'NONE', ( #14 ) ) ;
#257 = CYLINDRICAL_SURFACE ( 'NONE', #254, 0.01774999999999999842 ) ;
#258 = VERTEX_POINT ( 'NONE', #144 ) ;
#259 = AXIS2_PLACEMENT_3D ( 'NONE', #132, #175, #44 ) ;
#260 = CARTESIAN_POINT ( 'NONE',  ( 0.8452906757940714666, 0.01716152219139428434, -0.004603376859490147625 ) ) ;
#261 = VERTEX_POINT ( 'NONE', #191 ) ;
#262 = EDGE_LOOP ( 'NONE', ( #82 ) ) ;
#263 = LENGTH_MEASURE_WITH_UNIT ( LENGTH_MEASURE( 0.02539999999999999897 ), #25 );
#264 = FILL_AREA_STYLE ('',( #48 ) ) ;
#265 =( GEOMETRIC_REPRESENTATION_CONTEXT ( 3 ) GLOBAL_UNCERTAINTY_ASSIGNED_CONTEXT ( ( #176 ) ) GLOBAL_UNIT_ASSIGNED_CONTEXT ( ( #245, #97, #221 ) ) REPRESENTATION_CONTEXT ( 'NONE', 'WORKASPACE' ) );
#266 = APPLICATION_PROTOCOL_DEFINITION ( 'draft international standard', 'automotive_design', 1998, #199 ) ;
#267 = DIRECTION ( 'NONE',  ( 0.000000000000000000, 0.000000000000000000, 1.000000000000000000 ) ) ;
#268 = CARTESIAN_POINT ( 'NONE',  ( 7.127636798026794583E-17, 0.000000000000000000, 0.000000000000000000 ) ) ;
#269 = CARTESIAN_POINT ( 'NONE',  ( 0.8493920750627738103, 0.01774942647079427380, 0.0008295180503988424433 ) ) ;
#270 = SURFACE_SIDE_STYLE ('',( #156 ) ) ;
#271 = FACE_OUTER_BOUND ( 'NONE', #140, .T. ) ;
#272 = AXIS2_PLACEMENT_3D ( 'NONE', #226, #11, #213 ) ;
#273 = FACE_OUTER_BOUND ( 'NONE', #26, .T. ) ;
#274 = DIMENSIONAL_EXPONENTS ( 1.000000000000000000, 0.000000000000000000, 0.000000000000000000, 0.000000000000000000, 0.000000000000000000, 0.000000000000000000, 0.000000000000000000 ) ;
#275 = CARTESIAN_POINT ( 'NONE',  ( 0.7824343202536554465, 0.003425603548743936296, -0.01742094560969308786 ) ) ;
#276 = FACE_OUTER_BOUND ( 'NONE', #86, .T. ) ;
#277 = CARTESIAN_POINT ( 'NONE',  ( 0.3099999999999999978, 0.000000000000000000, 0.01774999999999999842 ) ) ;
#278 = EDGE_LOOP ( 'NONE', ( #101 ) ) ;
#279 = FACE_OUTER_BOUND ( 'NONE', #262, .T. ) ;
#280 = PRODUCT_RELATED_PRODUCT_CATEGORY ( 'part', '', ( #251 ) ) ;
#281 = EDGE_LOOP ( 'NONE', ( #19 ) ) ;
#282 = FACE_OUTER_BOUND ( 'NONE', #278, .T. ) ;
#283 = FACE_OUTER_BOUND ( 'NONE', #197, .T. ) ;
#284 = AXIS2_PLACEMENT_3D ( 'NONE', #268, #28, #1 ) ;
#285 = CARTESIAN_POINT ( 'NONE',  ( 0.8480731966040100378, 0.01751857922979694823, 0.002930011413977830041 ) ) ;
#286 = SHAPE_DEFINITION_REPRESENTATION ( #17, #52 ) ;
#287 = ORIENTED_EDGE ( 'NONE', *, *, #192, .F. ) ;
#288 =( CONVERSION_BASED_UNIT ( 'INCH', #263 ) LENGTH_UNIT ( ) NAMED_UNIT ( #180 ) );
#289 = CARTESIAN_POINT ( 'NONE',  ( 0.8365759424209477935, 0.01741954130215974880, 0.003432501332495975759 ) ) ;
ENDSEC;
END-ISO-10303-21;
