ISO-10303-21;
HEADER;
FILE_DESCRIPTION (( 'STEP AP214' ),
    '1' );
FILE_NAME ('100-PL_1241_.STEP',
    '2011-10-18T16:25:06',
    ( 'Authorized User' ),
    ( '' ),
    'SwSTEP 2.0',
    'SolidWorks 2011',
    '' );
FILE_SCHEMA (( 'AUTOMOTIVE_DESIGN' ));
ENDSEC;

DATA;
#1 = ADVANCED_BREP_SHAPE_REPRESENTATION ( '100-PL_1241_', ( #85, #60 ), #72 ) ;
#2 = EDGE_CURVE ( 'NONE', #285, #279, #70, .T. ) ;
#3 = EDGE_CURVE ( 'NONE', #281, #223, #172, .T. ) ;
#4 = EDGE_CURVE ( 'NONE', #286, #283, #58, .T. ) ;
#5 = EDGE_CURVE ( 'NONE', #327, #281, #16, .T. ) ;
#6 = EDGE_CURVE ( 'NONE', #284, #306, #42, .T. ) ;
#7 = EDGE_CURVE ( 'NONE', #286, #223, #158, .T. ) ;
#8 = EDGE_CURVE ( 'NONE', #327, #168, #180, .T. ) ;
#9 = DIMENSIONAL_EXPONENTS ( 1.000000000000000000, 0.0000000000000000000, 0.0000000000000000000, 0.0000000000000000000, 0.0000000000000000000, 0.0000000000000000000, 0.0000000000000000000 ) ;
#10 = DIMENSIONAL_EXPONENTS ( 1.000000000000000000, 0.0000000000000000000, 0.0000000000000000000, 0.0000000000000000000, 0.0000000000000000000, 0.0000000000000000000, 0.0000000000000000000 ) ;
#11 = DIMENSIONAL_EXPONENTS ( 1.000000000000000000, 0.0000000000000000000, 0.0000000000000000000, 0.0000000000000000000, 0.0000000000000000000, 0.0000000000000000000, 0.0000000000000000000 ) ;
#12 = PRODUCT ( '100-PL_1241_', '100-PL_1241_', '', ( #273 ) ) ;
#13 =( GEOMETRIC_REPRESENTATION_CONTEXT ( 3 ) GLOBAL_UNCERTAINTY_ASSIGNED_CONTEXT ( ( #88 ) ) GLOBAL_UNIT_ASSIGNED_CONTEXT ( ( #245, #242, #241 ) ) REPRESENTATION_CONTEXT ( 'NONE', 'WORKASPACE' ) );
#14 = AXIS2_PLACEMENT_3D ( 'NONE', #232, #244, #229 ) ;
#15 = CONICAL_SURFACE ( 'NONE', #52, 0.02000000000000000000, 0.5235987755983005900 ) ;
#16 = CIRCLE ( 'NONE', #35, 0.001249999999999983500 ) ;
#17 = CIRCLE ( 'NONE', #74, 0.02689999999999843900 ) ;
#18 = AXIS2_PLACEMENT_3D ( 'NONE', #198, #311, #315 ) ;
#19 = CIRCLE ( 'NONE', #29, 0.02000000000000000000 ) ;
#20 = CLOSED_SHELL ( 'NONE', ( #345, #98, #93, #347, #97, #349, #95, #94, #348, #96, #343 ) ) ;
#21 = MECHANICAL_DESIGN_GEOMETRIC_PRESENTATION_REPRESENTATION (  '', ( #25 ), #13 ) ;
#22 = AXIS2_PLACEMENT_3D ( 'NONE', #330, #148, #200 ) ;
#23 = CIRCLE ( 'NONE', #22, 0.001249999999999983500 ) ;
#24 = AXIS2_PLACEMENT_3D ( 'NONE', #321, #185, #143 ) ;
#25 = STYLED_ITEM ( 'NONE', ( #257 ), #1 ) ;
#26 = VECTOR ( 'NONE', #145, 39.37007874015748100 ) ;
#27 = AXIS2_PLACEMENT_3D ( 'NONE', #129, #126, #127 ) ;
#28 = COLOUR_RGB ( '',0.7529411764705882200, 0.7529411764705882200, 0.7529411764705882200 ) ;
#29 = AXIS2_PLACEMENT_3D ( 'NONE', #187, #188, #189 ) ;
#30 = PRESENTATION_LAYER_ASSIGNMENT (  '', '', ( #25 ) ) ;
#31 = CIRCLE ( 'NONE', #62, 0.02689999999999844300 ) ;
#32 = STYLED_ITEM ( 'NONE', ( #140 ), #85 ) ;
#33 = AXIS2_PLACEMENT_3D ( 'NONE', #193, #194, #196 ) ;
#34 = CIRCLE ( 'NONE', #27, 0.02348898808213781300 ) ;
#35 = AXIS2_PLACEMENT_3D ( 'NONE', #179, #181, #182 ) ;
#36 = COLOUR_RGB ( '',0.7529411764705882200, 0.7529411764705882200, 0.7529411764705882200 ) ;
#37 =( GEOMETRIC_REPRESENTATION_CONTEXT ( 3 ) GLOBAL_UNCERTAINTY_ASSIGNED_CONTEXT ( ( #83 ) ) GLOBAL_UNIT_ASSIGNED_CONTEXT ( ( #274, #309, #280 ) ) REPRESENTATION_CONTEXT ( 'NONE', 'WORKASPACE' ) );
#38 = AXIS2_PLACEMENT_3D ( 'NONE', #105, #110, #337 ) ;
#39 = VECTOR ( 'NONE', #331, 39.37007874015748100 ) ;
#40 = AXIS2_PLACEMENT_3D ( 'NONE', #252, #255, #254 ) ;
#41 = PRESENTATION_LAYER_ASSIGNMENT (  '', '', ( #32 ) ) ;
#42 = CIRCLE ( 'NONE', #51, 0.02689999999999843900 ) ;
#43 = AXIS2_PLACEMENT_3D ( 'NONE', #114, #123, #112 ) ;
#44 = AXIS2_PLACEMENT_3D ( 'NONE', #230, #261, #209 ) ;
#45 = AXIS2_PLACEMENT_3D ( 'NONE', #192, #253, #290 ) ;
#46 = VECTOR ( 'NONE', #301, 39.37007874015748100 ) ;
#47 = MECHANICAL_DESIGN_GEOMETRIC_PRESENTATION_REPRESENTATION (  '', ( #32 ), #37 ) ;
#48 = CIRCLE ( 'NONE', #56, 0.02689999999999844300 ) ;
#49 = AXIS2_PLACEMENT_3D ( 'NONE', #220, #216, #217 ) ;
#50 = AXIS2_PLACEMENT_3D ( 'NONE', #190, #153, #207 ) ;
#51 = AXIS2_PLACEMENT_3D ( 'NONE', #163, #222, #225 ) ;
#52 = AXIS2_PLACEMENT_3D ( 'NONE', #202, #184, #191 ) ;
#53 = CIRCLE ( 'NONE', #24, 0.02689999999999844300 ) ;
#54 = VECTOR ( 'NONE', #332, 39.37007874015748900 ) ;
#55 = CIRCLE ( 'NONE', #33, 0.02348898808213781300 ) ;
#56 = AXIS2_PLACEMENT_3D ( 'NONE', #122, #121, #120 ) ;
#57 = CIRCLE ( 'NONE', #49, 0.02689999999999843200 ) ;
#58 = CIRCLE ( 'NONE', #50, 0.02000000000000000000 ) ;
#59 = PRODUCT_DEFINITION_FORMATION_WITH_SPECIFIED_SOURCE ( 'ANY', '', #12, .NOT_KNOWN. ) ;
#60 = AXIS2_PLACEMENT_3D ( 'NONE', #240, #239, #238 ) ;
#61 = AXIS2_PLACEMENT_3D ( 'NONE', #151, #152, #154 ) ;
#62 = AXIS2_PLACEMENT_3D ( 'NONE', #298, #297, #296 ) ;
#63 = CIRCLE ( 'NONE', #61, 0.02000000000000000000 ) ;
#64 = CONICAL_SURFACE ( 'NONE', #65, 0.02000000000000000000, 0.5235987755983005900 ) ;
#65 = AXIS2_PLACEMENT_3D ( 'NONE', #302, #300, #307 ) ;
#66 = VECTOR ( 'NONE', #149, 39.37007874015748900 ) ;
#67 = AXIS2_PLACEMENT_3D ( 'NONE', #272, #268, #243 ) ;
#68 = AXIS2_PLACEMENT_3D ( 'NONE', #102, #157, #226 ) ;
#69 = VECTOR ( 'NONE', #119, 39.37007874015748100 ) ;
#70 = CIRCLE ( 'NONE', #18, 0.02689999999999844300 ) ;
#71 = CIRCLE ( 'NONE', #68, 0.02689999999999843200 ) ;
#72 =( GEOMETRIC_REPRESENTATION_CONTEXT ( 3 ) GLOBAL_UNCERTAINTY_ASSIGNED_CONTEXT ( ( #86 ) ) GLOBAL_UNIT_ASSIGNED_CONTEXT ( ( #287, #277, #276 ) ) REPRESENTATION_CONTEXT ( 'NONE', 'WORKASPACE' ) );
#73 = AXIS2_PLACEMENT_3D ( 'NONE', #111, #176, #304 ) ;
#74 = AXIS2_PLACEMENT_3D ( 'NONE', #295, #294, #293 ) ;
#75 = AXIS2_PLACEMENT_3D ( 'NONE', #131, #125, #124 ) ;
#76 = CIRCLE ( 'NONE', #77, 0.02000000000000000000 ) ;
#77 = AXIS2_PLACEMENT_3D ( 'NONE', #203, #204, #205 ) ;
#78 = EDGE_CURVE ( 'NONE', #283, #286, #63, .T. ) ;
#79 = EDGE_CURVE ( 'NONE', #283, #168, #144, .T. ) ;
#80 = EDGE_CURVE ( 'NONE', #282, #333, #57, .T. ) ;
#81 = PRODUCT_DEFINITION ( 'UNKNOWN', '', #59, #84 ) ;
#82 = PRODUCT_RELATED_PRODUCT_CATEGORY ( 'part', '', ( #12 ) ) ;
#83 = UNCERTAINTY_MEASURE_WITH_UNIT (LENGTH_MEASURE( 1.000000000000000100E-005 ), #274, 'distance_accuracy_value', 'NONE');
#84 = PRODUCT_DEFINITION_CONTEXT ( 'detailed design', #100, 'design' ) ;
#85 = MANIFOLD_SOLID_BREP ( 'Revolve1', #20 ) ;
#86 = UNCERTAINTY_MEASURE_WITH_UNIT (LENGTH_MEASURE( 1.000000000000000100E-005 ), #287, 'distance_accuracy_value', 'NONE');
#87 = PRODUCT_DEFINITION_SHAPE ( 'NONE', 'NONE',  #81 ) ;
#88 = UNCERTAINTY_MEASURE_WITH_UNIT (LENGTH_MEASURE( 1.000000000000000100E-005 ), #245, 'distance_accuracy_value', 'NONE');
#89 = EDGE_CURVE ( 'NONE', #281, #327, #23, .T. ) ;
#90 = EDGE_CURVE ( 'NONE', #223, #168, #19, .T. ) ;
#91 = EDGE_CURVE ( 'NONE', #289, #282, #55, .T. ) ;
#92 = EDGE_CURVE ( 'NONE', #168, #223, #76, .T. ) ;
#93 = ADVANCED_FACE ( 'NONE', ( #201 ), #15, .T. ) ;
#94 = ADVANCED_FACE ( 'NONE', ( #208 ), #256, .F. ) ;
#95 = ADVANCED_FACE ( 'NONE', ( #271 ), #206, .F. ) ;
#96 = ADVANCED_FACE ( 'NONE', ( #265 ), #267, .T. ) ;
#97 = ADVANCED_FACE ( 'NONE', ( #233 ), #236, .T. ) ;
#98 = ADVANCED_FACE ( 'NONE', ( #251 ), #212, .T. ) ;
#99 = APPLICATION_CONTEXT ( 'automotive_design' ) ;
#100 = APPLICATION_CONTEXT ( 'automotive_design' ) ;
#101 = PLANE ( 'NONE',  #75 ) ;
#102 = CARTESIAN_POINT ( 'NONE',  ( 0.0000000000000000000, -0.7068897963830799200, 0.0000000000000000000 ) ) ;
#103 = CARTESIAN_POINT ( 'NONE',  ( 0.0000000000000000000, 0.1350000000000000100, -0.001249999999999983500 ) ) ;
#104 = CYLINDRICAL_SURFACE ( 'NONE', #38, 0.02000000000000000000 ) ;
#105 = CARTESIAN_POINT ( 'NONE',  ( 0.0000000000000000000, 0.0000000000000000000, 0.0000000000000000000 ) ) ;
#106 = CARTESIAN_POINT ( 'NONE',  ( 0.0000000000000000000, 0.01000000000000001600, 0.02689999999999843900 ) ) ;
#107 = FACE_OUTER_BOUND ( 'NONE', #248, .T. ) ;
#108 = CARTESIAN_POINT ( 'NONE',  ( 0.02689999999999843900, -0.7068897963830799200, 0.0000000000000000000 ) ) ;
#109 = EDGE_LOOP ( 'NONE', ( #160, #310, #183, #303, #338 ) ) ;
#110 = DIRECTION ( 'NONE',  ( -0.0000000000000000000, 1.000000000000000000, -0.0000000000000000000 ) ) ;
#111 = CARTESIAN_POINT ( 'NONE',  ( 0.0000000000000000000, -0.7068897963830799200, 0.0000000000000000000 ) ) ;
#112 = DIRECTION ( 'NONE',  ( 0.0000000000000000000, 0.0000000000000000000, 1.000000000000000000 ) ) ;
#113 = LINE ( 'NONE', #117, #69 ) ;
#114 = CARTESIAN_POINT ( 'NONE',  ( 0.0000000000000000000, 0.0000000000000000000, 0.0000000000000000000 ) ) ;
#115 = FACE_OUTER_BOUND ( 'NONE', #174, .T. ) ;
#116 = CYLINDRICAL_SURFACE ( 'NONE', #43, 0.02689999999999843900 ) ;
#117 = CARTESIAN_POINT ( 'NONE',  ( 3.294299889706188900E-018, 0.0000000000000000000, -0.02689999999999843900 ) ) ;
#118 = ORIENTED_EDGE ( 'NONE', *, *, #92, .F. ) ;
#119 = DIRECTION ( 'NONE',  ( -0.0000000000000000000, 1.000000000000000000, -0.0000000000000000000 ) ) ;
#120 = DIRECTION ( 'NONE',  ( 0.0000000000000000000, 0.0000000000000000000, 1.000000000000000000 ) ) ;
#121 = DIRECTION ( 'NONE',  ( -0.0000000000000000000, 1.000000000000000000, -0.0000000000000000000 ) ) ;
#122 = CARTESIAN_POINT ( 'NONE',  ( 0.0000000000000000000, -0.7068897963830799200, 0.0000000000000000000 ) ) ;
#123 = DIRECTION ( 'NONE',  ( -0.0000000000000000000, 1.000000000000000000, -0.0000000000000000000 ) ) ;
#124 = DIRECTION ( 'NONE',  ( 0.0000000000000000000, -0.0000000000000000000, -1.000000000000000000 ) ) ;
#125 = DIRECTION ( 'NONE',  ( 0.0000000000000000000, -1.000000000000000000, 0.0000000000000000000 ) ) ;
#126 = DIRECTION ( 'NONE',  ( -0.0000000000000000000, 1.000000000000000000, -0.0000000000000000000 ) ) ;
#127 = DIRECTION ( 'NONE',  ( 0.0000000000000000000, 0.0000000000000000000, 1.000000000000000000 ) ) ;
#128 = CARTESIAN_POINT ( 'NONE',  ( 0.0000000000000000000, 0.01000000000000001600, 0.02000000000000000000 ) ) ;
#129 = CARTESIAN_POINT ( 'NONE',  ( 0.0000000000000000000, -0.7199999999999999700, 0.0000000000000000000 ) ) ;
#130 = CARTESIAN_POINT ( 'NONE',  ( 3.294299889706188900E-018, 0.01000000000000001600, -0.02689999999999843900 ) ) ;
#131 = CARTESIAN_POINT ( 'NONE',  ( 0.02689999999999843900, 0.01000000000000001600, 0.0000000000000000000 ) ) ;
#132 = CARTESIAN_POINT ( 'NONE',  ( 0.02348898808213781300, -0.7199999999999999700, 0.0000000000000000000 ) ) ;
#133 = CARTESIAN_POINT ( 'NONE',  ( 0.0000000000000000000, 0.1025240473580836500, -0.02000000000000000000 ) ) ;
#134 = CARTESIAN_POINT ( 'NONE',  ( 0.0000000000000000000, 0.0000000000000000000, 0.02689999999999843900 ) ) ;
#135 = LINE ( 'NONE', #134, #39 ) ;
#136 = SURFACE_STYLE_FILL_AREA ( #219 ) ;
#137 = FILL_AREA_STYLE_COLOUR ( '', #36 ) ;
#138 = ORIENTED_EDGE ( 'NONE', *, *, #3, .T. ) ;
#139 = SURFACE_SIDE_STYLE ('',( #136 ) ) ;
#140 = PRESENTATION_STYLE_ASSIGNMENT (( #142 ) ) ;
#141 = ORIENTED_EDGE ( 'NONE', *, *, #344, .T. ) ;
#142 = SURFACE_STYLE_USAGE ( .BOTH. , #139 ) ;
#143 = DIRECTION ( 'NONE',  ( 0.0000000000000000000, 0.0000000000000000000, 1.000000000000000000 ) ) ;
#144 = LINE ( 'NONE', #147, #26 ) ;
#145 = DIRECTION ( 'NONE',  ( -0.0000000000000000000, 1.000000000000000000, -0.0000000000000000000 ) ) ;
#146 = FACE_OUTER_BOUND ( 'NONE', #231, .T. ) ;
#147 = CARTESIAN_POINT ( 'NONE',  ( 2.449293598294706800E-018, 0.0000000000000000000, -0.02000000000000000000 ) ) ;
#148 = DIRECTION ( 'NONE',  ( -0.0000000000000000000, 1.000000000000000000, -0.0000000000000000000 ) ) ;
#149 = DIRECTION ( 'NONE',  ( 0.0000000000000000000, -0.8660254037844377100, -0.5000000000000013300 ) ) ;
#150 =( LENGTH_UNIT ( ) NAMED_UNIT ( * ) SI_UNIT ( $, .METRE. ) );
#151 = CARTESIAN_POINT ( 'NONE',  ( 0.0000000000000000000, 0.01000000000000001600, 0.0000000000000000000 ) ) ;
#152 = DIRECTION ( 'NONE',  ( -0.0000000000000000000, 1.000000000000000000, -0.0000000000000000000 ) ) ;
#153 = DIRECTION ( 'NONE',  ( -0.0000000000000000000, 1.000000000000000000, -0.0000000000000000000 ) ) ;
#154 = DIRECTION ( 'NONE',  ( 0.0000000000000000000, 0.0000000000000000000, 1.000000000000000000 ) ) ;
#155 = ORIENTED_EDGE ( 'NONE', *, *, #342, .F. ) ;
#156 = EDGE_LOOP ( 'NONE', ( #165, #275, #278, #155, #159 ) ) ;
#157 = DIRECTION ( 'NONE',  ( 1.224646799147353200E-016, 0.0000000000000000000, -1.000000000000000000 ) ) ;
#158 = LINE ( 'NONE', #313, #46 ) ;
#159 = ORIENTED_EDGE ( 'NONE', *, *, #2, .F. ) ;
#160 = ORIENTED_EDGE ( 'NONE', *, *, #344, .F. ) ;
#161 = ORIENTED_EDGE ( 'NONE', *, *, #5, .F. ) ;
#162 = ORIENTED_EDGE ( 'NONE', *, *, #341, .F. ) ;
#163 = CARTESIAN_POINT ( 'NONE',  ( 0.0000000000000000000, 0.01000000000000001600, 0.0000000000000000000 ) ) ;
#164 = ORIENTED_EDGE ( 'NONE', *, *, #89, .T. ) ;
#165 = ORIENTED_EDGE ( 'NONE', *, *, #346, .F. ) ;
#166 = ORIENTED_EDGE ( 'NONE', *, *, #7, .T. ) ;
#167 = ORIENTED_EDGE ( 'NONE', *, *, #80, .F. ) ;
#168 = VERTEX_POINT ( 'NONE', #228 ) ;
#169 = ORIENTED_EDGE ( 'NONE', *, *, #89, .F. ) ;
#170 = ORIENTED_EDGE ( 'NONE', *, *, #79, .F. ) ;
#171 = ORIENTED_EDGE ( 'NONE', *, *, #339, .F. ) ;
#172 = LINE ( 'NONE', #234, #54 ) ;
#173 = EDGE_LOOP ( 'NONE', ( #162, #318 ) ) ;
#174 = EDGE_LOOP ( 'NONE', ( #323, #141, #314, #171, #215 ) ) ;
#175 = ORIENTED_EDGE ( 'NONE', *, *, #346, .T. ) ;
#176 = DIRECTION ( 'NONE',  ( 0.0000000000000000000, 0.0000000000000000000, -1.000000000000000000 ) ) ;
#177 = ORIENTED_EDGE ( 'NONE', *, *, #4, .T. ) ;
#178 = ORIENTED_EDGE ( 'NONE', *, *, #341, .T. ) ;
#179 = CARTESIAN_POINT ( 'NONE',  ( 0.0000000000000000000, 0.1350000000000000100, 0.0000000000000000000 ) ) ;
#180 = LINE ( 'NONE', #133, #66 ) ;
#181 = DIRECTION ( 'NONE',  ( -0.0000000000000000000, 1.000000000000000000, -0.0000000000000000000 ) ) ;
#182 = DIRECTION ( 'NONE',  ( 0.0000000000000000000, 0.0000000000000000000, 1.000000000000000000 ) ) ;
#183 = ORIENTED_EDGE ( 'NONE', *, *, #2, .T. ) ;
#184 = DIRECTION ( 'NONE',  ( 0.0000000000000000000, -1.000000000000000000, 0.0000000000000000000 ) ) ;
#185 = DIRECTION ( 'NONE',  ( -0.0000000000000000000, 1.000000000000000000, -0.0000000000000000000 ) ) ;
#186 = LENGTH_MEASURE_WITH_UNIT ( LENGTH_MEASURE( 0.02539999999999999900 ), #150 );
#187 = CARTESIAN_POINT ( 'NONE',  ( 0.0000000000000000000, 0.1025240473580836500, 0.0000000000000000000 ) ) ;
#188 = DIRECTION ( 'NONE',  ( -0.0000000000000000000, 1.000000000000000000, -0.0000000000000000000 ) ) ;
#189 = DIRECTION ( 'NONE',  ( 0.0000000000000000000, 0.0000000000000000000, 1.000000000000000000 ) ) ;
#190 = CARTESIAN_POINT ( 'NONE',  ( 0.0000000000000000000, 0.01000000000000001600, 0.0000000000000000000 ) ) ;
#191 = DIRECTION ( 'NONE',  ( 0.0000000000000000000, 0.0000000000000000000, -1.000000000000000000 ) ) ;
#192 = CARTESIAN_POINT ( 'NONE',  ( 0.02348898808213780900, -0.7199999999999999700, 0.0000000000000000000 ) ) ;
#193 = CARTESIAN_POINT ( 'NONE',  ( 0.0000000000000000000, -0.7199999999999999700, 0.0000000000000000000 ) ) ;
#194 = DIRECTION ( 'NONE',  ( -0.0000000000000000000, 1.000000000000000000, -0.0000000000000000000 ) ) ;
#195 = CARTESIAN_POINT ( 'NONE',  ( 2.449293598294706800E-018, 0.01000000000000001600, -0.02000000000000000000 ) ) ;
#196 = DIRECTION ( 'NONE',  ( 0.0000000000000000000, 0.0000000000000000000, 1.000000000000000000 ) ) ;
#197 = ORIENTED_EDGE ( 'NONE', *, *, #4, .F. ) ;
#198 = CARTESIAN_POINT ( 'NONE',  ( 0.0000000000000000000, -0.7068897963830799200, 0.0000000000000000000 ) ) ;
#199 = EDGE_LOOP ( 'NONE', ( #266, #164 ) ) ;
#200 = DIRECTION ( 'NONE',  ( 0.0000000000000000000, 0.0000000000000000000, 1.000000000000000000 ) ) ;
#201 = FACE_OUTER_BOUND ( 'NONE', #224, .T. ) ;
#202 = CARTESIAN_POINT ( 'NONE',  ( 0.0000000000000000000, 0.1025240473580836500, 0.0000000000000000000 ) ) ;
#203 = CARTESIAN_POINT ( 'NONE',  ( 0.0000000000000000000, 0.1025240473580836500, 0.0000000000000000000 ) ) ;
#204 = DIRECTION ( 'NONE',  ( -0.0000000000000000000, 1.000000000000000000, -0.0000000000000000000 ) ) ;
#205 = DIRECTION ( 'NONE',  ( 0.0000000000000000000, 0.0000000000000000000, 1.000000000000000000 ) ) ;
#206 = PLANE ( 'NONE',  #40 ) ;
#207 = DIRECTION ( 'NONE',  ( 0.0000000000000000000, 0.0000000000000000000, 1.000000000000000000 ) ) ;
#208 = FACE_OUTER_BOUND ( 'NONE', #173, .T. ) ;
#209 = DIRECTION ( 'NONE',  ( 1.000000000000000000, 0.0000000000000000000, 0.0000000000000000000 ) ) ;
#210 = CARTESIAN_POINT ( 'NONE',  ( -0.02348898808213781300, -0.7199999999999999700, -3.085435648353114200E-018 ) ) ;
#211 = CARTESIAN_POINT ( 'NONE',  ( 3.294299889706189700E-018, -0.7068897963830799200, -0.02689999999999844300 ) ) ;
#212 = SPHERICAL_SURFACE ( 'NONE', #44, 0.02689999999999843200 ) ;
#213 = CARTESIAN_POINT ( 'NONE',  ( -0.02689999999999843900, -0.7068897963830799200, -3.294299889706188900E-018 ) ) ;
#214 = EDGE_LOOP ( 'NONE', ( #178, #175, #326, #259, #167 ) ) ;
#215 = ORIENTED_EDGE ( 'NONE', *, *, #342, .T. ) ;
#216 = DIRECTION ( 'NONE',  ( 0.0000000000000000000, 0.0000000000000000000, 1.000000000000000000 ) ) ;
#217 = DIRECTION ( 'NONE',  ( 1.000000000000000000, 0.0000000000000000000, 0.0000000000000000000 ) ) ;
#218 = VERTEX_POINT ( 'NONE', #211 ) ;
#219 = FILL_AREA_STYLE ('',( #137 ) ) ;
#220 = CARTESIAN_POINT ( 'NONE',  ( 0.0000000000000000000, -0.7068897963830799200, 0.0000000000000000000 ) ) ;
#221 = ORIENTED_EDGE ( 'NONE', *, *, #90, .T. ) ;
#222 = DIRECTION ( 'NONE',  ( -0.0000000000000000000, 1.000000000000000000, -0.0000000000000000000 ) ) ;
#223 = VERTEX_POINT ( 'NONE', #227 ) ;
#224 = EDGE_LOOP ( 'NONE', ( #169, #138, #221, #317 ) ) ;
#225 = DIRECTION ( 'NONE',  ( 0.0000000000000000000, 0.0000000000000000000, 1.000000000000000000 ) ) ;
#226 = DIRECTION ( 'NONE',  ( -1.000000000000000000, 0.0000000000000000000, -1.224646799147353500E-016 ) ) ;
#227 = CARTESIAN_POINT ( 'NONE',  ( 0.0000000000000000000, 0.1025240473580836500, 0.02000000000000000000 ) ) ;
#228 = CARTESIAN_POINT ( 'NONE',  ( 2.449293598294706800E-018, 0.1025240473580836500, -0.02000000000000000000 ) ) ;
#229 = DIRECTION ( 'NONE',  ( 0.0000000000000000000, 0.0000000000000000000, 1.000000000000000000 ) ) ;
#230 = CARTESIAN_POINT ( 'NONE',  ( 0.0000000000000000000, -0.7068897963830799200, 0.0000000000000000000 ) ) ;
#231 = EDGE_LOOP ( 'NONE', ( #320, #305 ) ) ;
#232 = CARTESIAN_POINT ( 'NONE',  ( 0.0000000000000000000, 0.0000000000000000000, 0.0000000000000000000 ) ) ;
#233 = FACE_OUTER_BOUND ( 'NONE', #328, .T. ) ;
#234 = CARTESIAN_POINT ( 'NONE',  ( 2.449293598294706800E-018, 0.1025240473580836500, 0.02000000000000000000 ) ) ;
#235 = ORIENTED_EDGE ( 'NONE', *, *, #3, .F. ) ;
#236 = CYLINDRICAL_SURFACE ( 'NONE', #14, 0.02000000000000000000 ) ;
#237 = APPLICATION_PROTOCOL_DEFINITION ( 'draft international standard', 'automotive_design', 1998, #100 ) ;
#238 = DIRECTION ( 'NONE',  ( 1.000000000000000000, 0.0000000000000000000, 0.0000000000000000000 ) ) ;
#239 = DIRECTION ( 'NONE',  ( 0.0000000000000000000, 0.0000000000000000000, 1.000000000000000000 ) ) ;
#240 = CARTESIAN_POINT ( 'NONE',  ( 0.0000000000000000000, 0.0000000000000000000, 0.0000000000000000000 ) ) ;
#241 =( NAMED_UNIT ( * ) SI_UNIT ( $, .STERADIAN. ) SOLID_ANGLE_UNIT ( ) );
#242 =( NAMED_UNIT ( * ) PLANE_ANGLE_UNIT ( ) SI_UNIT ( $, .RADIAN. ) );
#243 = DIRECTION ( 'NONE',  ( 0.0000000000000000000, 0.0000000000000000000, 1.000000000000000000 ) ) ;
#244 = DIRECTION ( 'NONE',  ( -0.0000000000000000000, 1.000000000000000000, -0.0000000000000000000 ) ) ;
#245 =( CONVERSION_BASED_UNIT ( 'INCH', #247 ) LENGTH_UNIT ( ) NAMED_UNIT ( #11 ) );
#246 = ORIENTED_EDGE ( 'NONE', *, *, #78, .T. ) ;
#247 = LENGTH_MEASURE_WITH_UNIT ( LENGTH_MEASURE( 0.02539999999999999900 ), #250 );
#248 = EDGE_LOOP ( 'NONE', ( #177, #249, #319, #322 ) ) ;
#249 = ORIENTED_EDGE ( 'NONE', *, *, #79, .T. ) ;
#250 =( LENGTH_UNIT ( ) NAMED_UNIT ( * ) SI_UNIT ( $, .METRE. ) );
#251 = FACE_OUTER_BOUND ( 'NONE', #214, .T. ) ;
#252 = CARTESIAN_POINT ( 'NONE',  ( 0.001249999999999983500, 0.1350000000000000100, 0.0000000000000000000 ) ) ;
#253 = DIRECTION ( 'NONE',  ( -0.0000000000000000000, 1.000000000000000000, 0.0000000000000000000 ) ) ;
#254 = DIRECTION ( 'NONE',  ( 0.0000000000000000000, -0.0000000000000000000, -1.000000000000000000 ) ) ;
#255 = DIRECTION ( 'NONE',  ( 0.0000000000000000000, -1.000000000000000000, 0.0000000000000000000 ) ) ;
#256 = PLANE ( 'NONE',  #45 ) ;
#257 = PRESENTATION_STYLE_ASSIGNMENT (( #260 ) ) ;
#258 = CARTESIAN_POINT ( 'NONE',  ( 0.0000000000000000000, -0.7068897963830799200, 0.02689999999999844300 ) ) ;
#259 = ORIENTED_EDGE ( 'NONE', *, *, #350, .F. ) ;
#260 = SURFACE_STYLE_USAGE ( .BOTH. , #262 ) ;
#261 = DIRECTION ( 'NONE',  ( 0.0000000000000000000, 0.0000000000000000000, -1.000000000000000000 ) ) ;
#262 = SURFACE_SIDE_STYLE ('',( #263 ) ) ;
#263 = SURFACE_STYLE_FILL_AREA ( #264 ) ;
#264 = FILL_AREA_STYLE ('',( #299 ) ) ;
#265 = FACE_OUTER_BOUND ( 'NONE', #109, .T. ) ;
#266 = ORIENTED_EDGE ( 'NONE', *, *, #5, .T. ) ;
#267 = CYLINDRICAL_SURFACE ( 'NONE', #67, 0.02689999999999843900 ) ;
#268 = DIRECTION ( 'NONE',  ( -0.0000000000000000000, 1.000000000000000000, -0.0000000000000000000 ) ) ;
#269 = APPLICATION_PROTOCOL_DEFINITION ( 'draft international standard', 'automotive_design', 1998, #99 ) ;
#270 = SHAPE_DEFINITION_REPRESENTATION ( #87, #1 ) ;
#271 = FACE_OUTER_BOUND ( 'NONE', #199, .T. ) ;
#272 = CARTESIAN_POINT ( 'NONE',  ( 0.0000000000000000000, 0.0000000000000000000, 0.0000000000000000000 ) ) ;
#273 = PRODUCT_CONTEXT ( 'NONE', #99, 'mechanical' ) ;
#274 =( CONVERSION_BASED_UNIT ( 'INCH', #186 ) LENGTH_UNIT ( ) NAMED_UNIT ( #10 ) );
#275 = ORIENTED_EDGE ( 'NONE', *, *, #91, .T. ) ;
#276 =( NAMED_UNIT ( * ) SI_UNIT ( $, .STERADIAN. ) SOLID_ANGLE_UNIT ( ) );
#277 =( NAMED_UNIT ( * ) PLANE_ANGLE_UNIT ( ) SI_UNIT ( $, .RADIAN. ) );
#278 = ORIENTED_EDGE ( 'NONE', *, *, #80, .T. ) ;
#279 = VERTEX_POINT ( 'NONE', #258 ) ;
#280 =( NAMED_UNIT ( * ) SI_UNIT ( $, .STERADIAN. ) SOLID_ANGLE_UNIT ( ) );
#281 = VERTEX_POINT ( 'NONE', #292 ) ;
#282 = VERTEX_POINT ( 'NONE', #132 ) ;
#283 = VERTEX_POINT ( 'NONE', #195 ) ;
#284 = VERTEX_POINT ( 'NONE', #130 ) ;
#285 = VERTEX_POINT ( 'NONE', #213 ) ;
#286 = VERTEX_POINT ( 'NONE', #128 ) ;
#287 =( CONVERSION_BASED_UNIT ( 'INCH', #288 ) LENGTH_UNIT ( ) NAMED_UNIT ( #9 ) );
#288 = LENGTH_MEASURE_WITH_UNIT ( LENGTH_MEASURE( 0.02539999999999999900 ), #291 );
#289 = VERTEX_POINT ( 'NONE', #210 ) ;
#290 = DIRECTION ( 'NONE',  ( 0.0000000000000000000, 0.0000000000000000000, 1.000000000000000000 ) ) ;
#291 =( LENGTH_UNIT ( ) NAMED_UNIT ( * ) SI_UNIT ( $, .METRE. ) );
#292 = CARTESIAN_POINT ( 'NONE',  ( 1.301187224094063400E-018, 0.1350000000000000100, 0.001249999999999983500 ) ) ;
#293 = DIRECTION ( 'NONE',  ( 0.0000000000000000000, 0.0000000000000000000, 1.000000000000000000 ) ) ;
#294 = DIRECTION ( 'NONE',  ( -0.0000000000000000000, 1.000000000000000000, -0.0000000000000000000 ) ) ;
#295 = CARTESIAN_POINT ( 'NONE',  ( 0.0000000000000000000, 0.01000000000000001600, 0.0000000000000000000 ) ) ;
#296 = DIRECTION ( 'NONE',  ( 0.0000000000000000000, 0.0000000000000000000, 1.000000000000000000 ) ) ;
#297 = DIRECTION ( 'NONE',  ( -0.0000000000000000000, 1.000000000000000000, -0.0000000000000000000 ) ) ;
#298 = CARTESIAN_POINT ( 'NONE',  ( 0.0000000000000000000, -0.7068897963830799200, 0.0000000000000000000 ) ) ;
#299 = FILL_AREA_STYLE_COLOUR ( '', #28 ) ;
#300 = DIRECTION ( 'NONE',  ( 0.0000000000000000000, -1.000000000000000000, 0.0000000000000000000 ) ) ;
#301 = DIRECTION ( 'NONE',  ( -0.0000000000000000000, 1.000000000000000000, -0.0000000000000000000 ) ) ;
#302 = CARTESIAN_POINT ( 'NONE',  ( 0.0000000000000000000, 0.1025240473580836500, 0.0000000000000000000 ) ) ;
#303 = ORIENTED_EDGE ( 'NONE', *, *, #339, .T. ) ;
#304 = DIRECTION ( 'NONE',  ( 1.000000000000000000, 0.0000000000000000000, 0.0000000000000000000 ) ) ;
#305 = ORIENTED_EDGE ( 'NONE', *, *, #6, .T. ) ;
#306 = VERTEX_POINT ( 'NONE', #106 ) ;
#307 = DIRECTION ( 'NONE',  ( 0.0000000000000000000, 0.0000000000000000000, -1.000000000000000000 ) ) ;
#308 = SPHERICAL_SURFACE ( 'NONE', #73, 0.02689999999999843200 ) ;
#309 =( NAMED_UNIT ( * ) PLANE_ANGLE_UNIT ( ) SI_UNIT ( $, .RADIAN. ) );
#310 = ORIENTED_EDGE ( 'NONE', *, *, #340, .T. ) ;
#311 = DIRECTION ( 'NONE',  ( -0.0000000000000000000, 1.000000000000000000, -0.0000000000000000000 ) ) ;
#312 = ORIENTED_EDGE ( 'NONE', *, *, #8, .T. ) ;
#313 = CARTESIAN_POINT ( 'NONE',  ( 0.0000000000000000000, 0.0000000000000000000, 0.02000000000000000000 ) ) ;
#314 = ORIENTED_EDGE ( 'NONE', *, *, #351, .F. ) ;
#315 = DIRECTION ( 'NONE',  ( 0.0000000000000000000, 0.0000000000000000000, 1.000000000000000000 ) ) ;
#316 = ORIENTED_EDGE ( 'NONE', *, *, #92, .T. ) ;
#317 = ORIENTED_EDGE ( 'NONE', *, *, #8, .F. ) ;
#318 = ORIENTED_EDGE ( 'NONE', *, *, #91, .F. ) ;
#319 = ORIENTED_EDGE ( 'NONE', *, *, #90, .F. ) ;
#320 = ORIENTED_EDGE ( 'NONE', *, *, #351, .T. ) ;
#321 = CARTESIAN_POINT ( 'NONE',  ( 0.0000000000000000000, -0.7068897963830799200, 0.0000000000000000000 ) ) ;
#322 = ORIENTED_EDGE ( 'NONE', *, *, #7, .F. ) ;
#323 = ORIENTED_EDGE ( 'NONE', *, *, #350, .T. ) ;
#324 = EDGE_LOOP ( 'NONE', ( #235, #161, #312, #316 ) ) ;
#325 = EDGE_LOOP ( 'NONE', ( #197, #329 ) ) ;
#326 = ORIENTED_EDGE ( 'NONE', *, *, #340, .F. ) ;
#327 = VERTEX_POINT ( 'NONE', #103 ) ;
#328 = EDGE_LOOP ( 'NONE', ( #170, #246, #166, #118 ) ) ;
#329 = ORIENTED_EDGE ( 'NONE', *, *, #78, .F. ) ;
#330 = CARTESIAN_POINT ( 'NONE',  ( 0.0000000000000000000, 0.1350000000000000100, 0.0000000000000000000 ) ) ;
#331 = DIRECTION ( 'NONE',  ( -0.0000000000000000000, 1.000000000000000000, -0.0000000000000000000 ) ) ;
#332 = DIRECTION ( 'NONE',  ( 6.123233995736782100E-017, -0.8660254037844377100, 0.5000000000000013300 ) ) ;
#333 = VERTEX_POINT ( 'NONE', #108 ) ;
#334 = FACE_OUTER_BOUND ( 'NONE', #156, .T. ) ;
#335 = FACE_BOUND ( 'NONE', #325, .T. ) ;
#336 = FACE_OUTER_BOUND ( 'NONE', #324, .T. ) ;
#337 = DIRECTION ( 'NONE',  ( 0.0000000000000000000, 0.0000000000000000000, 1.000000000000000000 ) ) ;
#338 = ORIENTED_EDGE ( 'NONE', *, *, #6, .F. ) ;
#339 = EDGE_CURVE ( 'NONE', #279, #306, #135, .T. ) ;
#340 = EDGE_CURVE ( 'NONE', #218, #285, #53, .T. ) ;
#341 = EDGE_CURVE ( 'NONE', #282, #289, #34, .T. ) ;
#342 = EDGE_CURVE ( 'NONE', #279, #333, #48, .T. ) ;
#343 = ADVANCED_FACE ( 'NONE', ( #335, #146 ), #101, .F. ) ;
#344 = EDGE_CURVE ( 'NONE', #218, #284, #113, .T. ) ;
#345 = ADVANCED_FACE ( 'NONE', ( #115 ), #116, .T. ) ;
#346 = EDGE_CURVE ( 'NONE', #289, #285, #71, .T. ) ;
#347 = ADVANCED_FACE ( 'NONE', ( #107 ), #104, .T. ) ;
#348 = ADVANCED_FACE ( 'NONE', ( #334 ), #308, .T. ) ;
#349 = ADVANCED_FACE ( 'NONE', ( #336 ), #64, .T. ) ;
#350 = EDGE_CURVE ( 'NONE', #333, #218, #31, .T. ) ;
#351 = EDGE_CURVE ( 'NONE', #306, #284, #17, .T. ) ;
ENDSEC;
END-ISO-10303-21;
