ISO-10303-21;
HEADER;
FILE_DESCRIPTION (( 'STEP AP214' ),
    '1' );
FILE_NAME ('100-PL_1541_.STEP',
    '2011-10-18T16:26:08',
    ( 'Authorized User' ),
    ( '' ),
    'SwSTEP 2.0',
    'SolidWorks 2011',
    '' );
FILE_SCHEMA (( 'AUTOMOTIVE_DESIGN' ));
ENDSEC;

DATA;
#1 = ADVANCED_BREP_SHAPE_REPRESENTATION ( '100-PL_1541_', ( #86, #78 ), #19 ) ;
#2 = ADVANCED_FACE ( 'NONE', ( #232 ), #299, .T. ) ;
#3 = EDGE_CURVE ( 'NONE', #246, #203, #48, .T. ) ;
#4 = EDGE_CURVE ( 'NONE', #203, #289, #142, .T. ) ;
#5 = EDGE_CURVE ( 'NONE', #154, #246, #20, .T. ) ;
#6 = ADVANCED_FACE ( 'NONE', ( #152 ), #23, .T. ) ;
#7 = ADVANCED_FACE ( 'NONE', ( #241 ), #193, .T. ) ;
#8 = EDGE_CURVE ( 'NONE', #200, #204, #61, .T. ) ;
#9 = EDGE_CURVE ( 'NONE', #312, #289, #54, .T. ) ;
#10 = DIMENSIONAL_EXPONENTS ( 1.000000000000000000, 0.0000000000000000000, 0.0000000000000000000, 0.0000000000000000000, 0.0000000000000000000, 0.0000000000000000000, 0.0000000000000000000 ) ;
#11 = DIMENSIONAL_EXPONENTS ( 1.000000000000000000, 0.0000000000000000000, 0.0000000000000000000, 0.0000000000000000000, 0.0000000000000000000, 0.0000000000000000000, 0.0000000000000000000 ) ;
#12 = DIMENSIONAL_EXPONENTS ( 1.000000000000000000, 0.0000000000000000000, 0.0000000000000000000, 0.0000000000000000000, 0.0000000000000000000, 0.0000000000000000000, 0.0000000000000000000 ) ;
#13 = PRODUCT ( '100-PL_1541_', '100-PL_1541_', '', ( #219 ) ) ;
#14 = MECHANICAL_DESIGN_GEOMETRIC_PRESENTATION_REPRESENTATION (  '', ( #24 ), #71 ) ;
#15 = AXIS2_PLACEMENT_3D ( 'NONE', #131, #170, #179 ) ;
#16 = PRESENTATION_LAYER_ASSIGNMENT (  '', '', ( #24 ) ) ;
#17 = COLOUR_RGB ( '',0.7529411764705882200, 0.7529411764705882200, 0.7529411764705882200 ) ;
#18 = AXIS2_PLACEMENT_3D ( 'NONE', #273, #262, #261 ) ;
#19 =( GEOMETRIC_REPRESENTATION_CONTEXT ( 3 ) GLOBAL_UNCERTAINTY_ASSIGNED_CONTEXT ( ( #84 ) ) GLOBAL_UNIT_ASSIGNED_CONTEXT ( ( #207, #210, #213 ) ) REPRESENTATION_CONTEXT ( 'NONE', 'WORKASPACE' ) );
#20 = CIRCLE ( 'NONE', #73, 0.02689999999999844300 ) ;
#21 = AXIS2_PLACEMENT_3D ( 'NONE', #306, #151, #293 ) ;
#22 = COLOUR_RGB ( '',0.7529411764705882200, 0.7529411764705882200, 0.7529411764705882200 ) ;
#23 = CONICAL_SURFACE ( 'NONE', #21, 0.02000000000000000000, 0.5235987755983002600 ) ;
#24 = STYLED_ITEM ( 'NONE', ( #226 ), #1 ) ;
#25 = AXIS2_PLACEMENT_3D ( 'NONE', #194, #197, #201 ) ;
#26 = AXIS2_PLACEMENT_3D ( 'NONE', #292, #108, #134 ) ;
#27 =( GEOMETRIC_REPRESENTATION_CONTEXT ( 3 ) GLOBAL_UNCERTAINTY_ASSIGNED_CONTEXT ( ( #85 ) ) GLOBAL_UNIT_ASSIGNED_CONTEXT ( ( #155, #189, #288 ) ) REPRESENTATION_CONTEXT ( 'NONE', 'WORKASPACE' ) );
#28 = AXIS2_PLACEMENT_3D ( 'NONE', #190, #191, #192 ) ;
#29 = AXIS2_PLACEMENT_3D ( 'NONE', #183, #184, #185 ) ;
#30 = AXIS2_PLACEMENT_3D ( 'NONE', #310, #309, #282 ) ;
#31 = CIRCLE ( 'NONE', #28, 0.001249999999999980500 ) ;
#32 = AXIS2_PLACEMENT_3D ( 'NONE', #180, #181, #182 ) ;
#33 = CIRCLE ( 'NONE', #29, 0.02689999999999843900 ) ;
#34 = AXIS2_PLACEMENT_3D ( 'NONE', #141, #244, #178 ) ;
#35 = CIRCLE ( 'NONE', #32, 0.02689999999999844300 ) ;
#36 = AXIS2_PLACEMENT_3D ( 'NONE', #167, #165, #243 ) ;
#37 = CIRCLE ( 'NONE', #30, 0.02689999999999844300 ) ;
#38 = CLOSED_SHELL ( 'NONE', ( #96, #98, #6, #2, #100, #93, #95, #94, #7, #97, #99 ) ) ;
#39 = CIRCLE ( 'NONE', #65, 0.02689999999999843900 ) ;
#40 = AXIS2_PLACEMENT_3D ( 'NONE', #172, #173, #168 ) ;
#41 = AXIS2_PLACEMENT_3D ( 'NONE', #257, #120, #337 ) ;
#42 = AXIS2_PLACEMENT_3D ( 'NONE', #229, #218, #199 ) ;
#43 = VECTOR ( 'NONE', #174, 39.37007874015748100 ) ;
#44 = VECTOR ( 'NONE', #147, 39.37007874015748100 ) ;
#45 = CIRCLE ( 'NONE', #25, 0.001249999999999980500 ) ;
#46 = CIRCLE ( 'NONE', #40, 0.02000000000000000000 ) ;
#47 = CIRCLE ( 'NONE', #36, 0.02000000000000000000 ) ;
#48 = CIRCLE ( 'NONE', #66, 0.02689999999999844300 ) ;
#49 = CONICAL_SURFACE ( 'NONE', #15, 0.02000000000000000000, 0.5235987755983002600 ) ;
#50 = AXIS2_PLACEMENT_3D ( 'NONE', #256, #263, #133 ) ;
#51 = STYLED_ITEM ( 'NONE', ( #158 ), #86 ) ;
#52 = CIRCLE ( 'NONE', #34, 0.02000000000000000000 ) ;
#53 = AXIS2_PLACEMENT_3D ( 'NONE', #333, #145, #146 ) ;
#54 = CIRCLE ( 'NONE', #42, 0.02689999999999843900 ) ;
#55 = AXIS2_PLACEMENT_3D ( 'NONE', #338, #118, #339 ) ;
#56 = AXIS2_PLACEMENT_3D ( 'NONE', #186, #166, #177 ) ;
#57 = VECTOR ( 'NONE', #132, 39.37007874015748100 ) ;
#58 = AXIS2_PLACEMENT_3D ( 'NONE', #269, #268, #272 ) ;
#59 = AXIS2_PLACEMENT_3D ( 'NONE', #294, #169, #188 ) ;
#60 = CIRCLE ( 'NONE', #53, 0.02000000000000000000 ) ;
#61 = CIRCLE ( 'NONE', #56, 0.02348898808213775000 ) ;
#62 = VECTOR ( 'NONE', #251, 39.37007874015748100 ) ;
#63 = AXIS2_PLACEMENT_3D ( 'NONE', #258, #283, #284 ) ;
#64 = CIRCLE ( 'NONE', #63, 0.02348898808213775000 ) ;
#65 = AXIS2_PLACEMENT_3D ( 'NONE', #111, #248, #110 ) ;
#66 = AXIS2_PLACEMENT_3D ( 'NONE', #260, #255, #254 ) ;
#67 = MECHANICAL_DESIGN_GEOMETRIC_PRESENTATION_REPRESENTATION (  '', ( #51 ), #27 ) ;
#68 = AXIS2_PLACEMENT_3D ( 'NONE', #238, #239, #240 ) ;
#69 = CIRCLE ( 'NONE', #68, 0.02689999999999843900 ) ;
#70 = VECTOR ( 'NONE', #176, 39.37007874015748100 ) ;
#71 =( GEOMETRIC_REPRESENTATION_CONTEXT ( 3 ) GLOBAL_UNCERTAINTY_ASSIGNED_CONTEXT ( ( #83 ) ) GLOBAL_UNIT_ASSIGNED_CONTEXT ( ( #230, #233, #235 ) ) REPRESENTATION_CONTEXT ( 'NONE', 'WORKASPACE' ) );
#72 = AXIS2_PLACEMENT_3D ( 'NONE', #259, #334, #126 ) ;
#73 = AXIS2_PLACEMENT_3D ( 'NONE', #149, #148, #122 ) ;
#74 = VECTOR ( 'NONE', #114, 39.37007874015748100 ) ;
#75 = PRODUCT_DEFINITION_FORMATION_WITH_SPECIFIED_SOURCE ( 'ANY', '', #13, .NOT_KNOWN. ) ;
#76 = PRESENTATION_LAYER_ASSIGNMENT (  '', '', ( #51 ) ) ;
#77 = AXIS2_PLACEMENT_3D ( 'NONE', #115, #117, #267 ) ;
#78 = AXIS2_PLACEMENT_3D ( 'NONE', #245, #249, #247 ) ;
#79 = APPLICATION_CONTEXT ( 'automotive_design' ) ;
#80 = APPLICATION_CONTEXT ( 'automotive_design' ) ;
#81 = PRODUCT_DEFINITION_SHAPE ( 'NONE', 'NONE',  #91 ) ;
#82 = PRODUCT_DEFINITION_CONTEXT ( 'detailed design', #79, 'design' ) ;
#83 = UNCERTAINTY_MEASURE_WITH_UNIT (LENGTH_MEASURE( 1.000000000000000100E-005 ), #230, 'distance_accuracy_value', 'NONE');
#84 = UNCERTAINTY_MEASURE_WITH_UNIT (LENGTH_MEASURE( 1.000000000000000100E-005 ), #207, 'distance_accuracy_value', 'NONE');
#85 = UNCERTAINTY_MEASURE_WITH_UNIT (LENGTH_MEASURE( 1.000000000000000100E-005 ), #155, 'distance_accuracy_value', 'NONE');
#86 = MANIFOLD_SOLID_BREP ( 'Revolve1', #38 ) ;
#87 = EDGE_CURVE ( 'NONE', #154, #312, #171, .T. ) ;
#88 = EDGE_CURVE ( 'NONE', #311, #154, #37, .T. ) ;
#89 = EDGE_CURVE ( 'NONE', #204, #200, #64, .T. ) ;
#90 = EDGE_CURVE ( 'NONE', #289, #312, #39, .T. ) ;
#91 = PRODUCT_DEFINITION ( 'UNKNOWN', '', #75, #82 ) ;
#92 = PRODUCT_RELATED_PRODUCT_CATEGORY ( 'part', '', ( #13 ) ) ;
#93 = ADVANCED_FACE ( 'NONE', ( #320 ), #49, .T. ) ;
#94 = ADVANCED_FACE ( 'NONE', ( #125 ), #335, .F. ) ;
#95 = ADVANCED_FACE ( 'NONE', ( #116 ), #123, .F. ) ;
#96 = ADVANCED_FACE ( 'NONE', ( #278 ), #279, .T. ) ;
#97 = ADVANCED_FACE ( 'NONE', ( #270 ), #266, .T. ) ;
#98 = ADVANCED_FACE ( 'NONE', ( #127 ), #274, .T. ) ;
#99 = ADVANCED_FACE ( 'NONE', ( #271, #128 ), #275, .F. ) ;
#100 = ADVANCED_FACE ( 'NONE', ( #119 ), #317, .T. ) ;
#101 = EDGE_CURVE ( 'NONE', #200, #246, #69, .T. ) ;
#102 = EDGE_CURVE ( 'NONE', #295, #316, #318, .T. ) ;
#103 = ORIENTED_EDGE ( 'NONE', *, *, #344, .T. ) ;
#104 = APPLICATION_PROTOCOL_DEFINITION ( 'draft international standard', 'automotive_design', 1998, #79 ) ;
#105 = ORIENTED_EDGE ( 'NONE', *, *, #342, .T. ) ;
#106 = LINE ( 'NONE', #161, #43 ) ;
#107 = CARTESIAN_POINT ( 'NONE',  ( 2.449293598294706800E-018, 0.01000000000000001600, -0.02000000000000000000 ) ) ;
#108 = DIRECTION ( 'NONE',  ( -0.0000000000000000000, 1.000000000000000000, -0.0000000000000000000 ) ) ;
#109 = CARTESIAN_POINT ( 'NONE',  ( 0.0000000000000000000, 0.01000000000000001600, 0.02689999999999843900 ) ) ;
#110 = DIRECTION ( 'NONE',  ( 0.0000000000000000000, 0.0000000000000000000, 1.000000000000000000 ) ) ;
#111 = CARTESIAN_POINT ( 'NONE',  ( 0.0000000000000000000, 0.01000000000000001600, 0.0000000000000000000 ) ) ;
#112 = CARTESIAN_POINT ( 'NONE',  ( 0.0000000000000000000, 0.0000000000000000000, 0.02689999999999843900 ) ) ;
#113 = CARTESIAN_POINT ( 'NONE',  ( 3.294299889706188900E-018, 0.01000000000000001600, -0.02689999999999843900 ) ) ;
#114 = DIRECTION ( 'NONE',  ( -0.0000000000000000000, 1.000000000000000000, -0.0000000000000000000 ) ) ;
#115 = CARTESIAN_POINT ( 'NONE',  ( 0.0000000000000000000, 0.0000000000000000000, 0.0000000000000000000 ) ) ;
#116 = FACE_OUTER_BOUND ( 'NONE', #298, .T. ) ;
#117 = DIRECTION ( 'NONE',  ( -0.0000000000000000000, 1.000000000000000000, -0.0000000000000000000 ) ) ;
#118 = DIRECTION ( 'NONE',  ( 0.0000000000000000000, -1.000000000000000000, 0.0000000000000000000 ) ) ;
#119 = FACE_OUTER_BOUND ( 'NONE', #286, .T. ) ;
#120 = DIRECTION ( 'NONE',  ( -0.0000000000000000000, 1.000000000000000000, -0.0000000000000000000 ) ) ;
#121 = ORIENTED_EDGE ( 'NONE', *, *, #341, .F. ) ;
#122 = DIRECTION ( 'NONE',  ( 0.0000000000000000000, 0.0000000000000000000, 1.000000000000000000 ) ) ;
#123 = PLANE ( 'NONE',  #55 ) ;
#124 = CARTESIAN_POINT ( 'NONE',  ( 1.301187224094062000E-018, 0.1600000000000000000, 0.001249999999999980500 ) ) ;
#125 = FACE_OUTER_BOUND ( 'NONE', #297, .T. ) ;
#126 = DIRECTION ( 'NONE',  ( 0.0000000000000000000, 0.0000000000000000000, 1.000000000000000000 ) ) ;
#127 = FACE_OUTER_BOUND ( 'NONE', #153, .T. ) ;
#128 = FACE_OUTER_BOUND ( 'NONE', #307, .T. ) ;
#129 = CARTESIAN_POINT ( 'NONE',  ( 2.449293598294706800E-018, 0.0000000000000000000, -0.02000000000000000000 ) ) ;
#130 = CARTESIAN_POINT ( 'NONE',  ( 2.449293598294706800E-018, 0.1275240473580836200, 0.02000000000000000000 ) ) ;
#131 = CARTESIAN_POINT ( 'NONE',  ( 0.0000000000000000000, 0.1275240473580836200, 0.0000000000000000000 ) ) ;
#132 = DIRECTION ( 'NONE',  ( 0.0000000000000000000, -0.8660254037844379300, -0.5000000000000012200 ) ) ;
#133 = DIRECTION ( 'NONE',  ( 0.0000000000000000000, -0.0000000000000000000, -1.000000000000000000 ) ) ;
#134 = DIRECTION ( 'NONE',  ( 0.0000000000000000000, 0.0000000000000000000, 1.000000000000000000 ) ) ;
#135 = ORIENTED_EDGE ( 'NONE', *, *, #5, .T. ) ;
#136 = ORIENTED_EDGE ( 'NONE', *, *, #347, .F. ) ;
#137 = CARTESIAN_POINT ( 'NONE',  ( 0.0000000000000000000, 0.01000000000000001600, 0.02000000000000000000 ) ) ;
#138 = ORIENTED_EDGE ( 'NONE', *, *, #8, .F. ) ;
#139 = ORIENTED_EDGE ( 'NONE', *, *, #351, .F. ) ;
#140 = ORIENTED_EDGE ( 'NONE', *, *, #349, .T. ) ;
#141 = CARTESIAN_POINT ( 'NONE',  ( 0.0000000000000000000, 0.01000000000000001600, 0.0000000000000000000 ) ) ;
#142 = LINE ( 'NONE', #302, #62 ) ;
#143 = EDGE_LOOP ( 'NONE', ( #326, #321, #195, #277, #135 ) ) ;
#144 = EDGE_LOOP ( 'NONE', ( #139, #264, #314, #340 ) ) ;
#145 = DIRECTION ( 'NONE',  ( -0.0000000000000000000, 1.000000000000000000, -0.0000000000000000000 ) ) ;
#146 = DIRECTION ( 'NONE',  ( 0.0000000000000000000, 0.0000000000000000000, 1.000000000000000000 ) ) ;
#147 = DIRECTION ( 'NONE',  ( -0.0000000000000000000, 1.000000000000000000, -0.0000000000000000000 ) ) ;
#148 = DIRECTION ( 'NONE',  ( -0.0000000000000000000, 1.000000000000000000, -0.0000000000000000000 ) ) ;
#149 = CARTESIAN_POINT ( 'NONE',  ( 0.0000000000000000000, -0.7068897963830799200, 0.0000000000000000000 ) ) ;
#150 = ORIENTED_EDGE ( 'NONE', *, *, #349, .F. ) ;
#151 = DIRECTION ( 'NONE',  ( 0.0000000000000000000, -1.000000000000000000, 0.0000000000000000000 ) ) ;
#152 = FACE_OUTER_BOUND ( 'NONE', #144, .T. ) ;
#153 = EDGE_LOOP ( 'NONE', ( #216, #140, #211, #280, #164 ) ) ;
#154 = VERTEX_POINT ( 'NONE', #336 ) ;
#155 =( CONVERSION_BASED_UNIT ( 'INCH', #156 ) LENGTH_UNIT ( ) NAMED_UNIT ( #10 ) );
#156 = LENGTH_MEASURE_WITH_UNIT ( LENGTH_MEASURE( 0.02539999999999999900 ), #291 );
#157 = CARTESIAN_POINT ( 'NONE',  ( 0.0000000000000000000, 0.1275240473580836200, -0.02000000000000000000 ) ) ;
#158 = PRESENTATION_STYLE_ASSIGNMENT (( #159 ) ) ;
#159 = SURFACE_STYLE_USAGE ( .BOTH. , #160 ) ;
#160 = SURFACE_SIDE_STYLE ('',( #162 ) ) ;
#161 = CARTESIAN_POINT ( 'NONE',  ( 0.0000000000000000000, 0.0000000000000000000, 0.02000000000000000000 ) ) ;
#162 = SURFACE_STYLE_FILL_AREA ( #163 ) ;
#163 = FILL_AREA_STYLE ('',( #242 ) ) ;
#164 = ORIENTED_EDGE ( 'NONE', *, *, #101, .F. ) ;
#165 = DIRECTION ( 'NONE',  ( -0.0000000000000000000, 1.000000000000000000, -0.0000000000000000000 ) ) ;
#166 = DIRECTION ( 'NONE',  ( -0.0000000000000000000, 1.000000000000000000, -0.0000000000000000000 ) ) ;
#167 = CARTESIAN_POINT ( 'NONE',  ( 0.0000000000000000000, 0.1275240473580836200, 0.0000000000000000000 ) ) ;
#168 = DIRECTION ( 'NONE',  ( 0.0000000000000000000, 0.0000000000000000000, 1.000000000000000000 ) ) ;
#169 = DIRECTION ( 'NONE',  ( 0.0000000000000000000, 0.0000000000000000000, -1.000000000000000000 ) ) ;
#170 = DIRECTION ( 'NONE',  ( 0.0000000000000000000, -1.000000000000000000, 0.0000000000000000000 ) ) ;
#171 = LINE ( 'NONE', #112, #74 ) ;
#172 = CARTESIAN_POINT ( 'NONE',  ( 0.0000000000000000000, 0.1275240473580836200, 0.0000000000000000000 ) ) ;
#173 = DIRECTION ( 'NONE',  ( -0.0000000000000000000, 1.000000000000000000, -0.0000000000000000000 ) ) ;
#174 = DIRECTION ( 'NONE',  ( -0.0000000000000000000, 1.000000000000000000, -0.0000000000000000000 ) ) ;
#175 = CARTESIAN_POINT ( 'NONE',  ( 0.0000000000000000000, 0.1600000000000000000, -0.001249999999999980500 ) ) ;
#176 = DIRECTION ( 'NONE',  ( 6.123233995736780800E-017, -0.8660254037844379300, 0.5000000000000012200 ) ) ;
#177 = DIRECTION ( 'NONE',  ( 0.0000000000000000000, 0.0000000000000000000, 1.000000000000000000 ) ) ;
#178 = DIRECTION ( 'NONE',  ( 0.0000000000000000000, 0.0000000000000000000, 1.000000000000000000 ) ) ;
#179 = DIRECTION ( 'NONE',  ( 0.0000000000000000000, 0.0000000000000000000, -1.000000000000000000 ) ) ;
#180 = CARTESIAN_POINT ( 'NONE',  ( 0.0000000000000000000, -0.7068897963830799200, 0.0000000000000000000 ) ) ;
#181 = DIRECTION ( 'NONE',  ( -0.0000000000000000000, 1.000000000000000000, -0.0000000000000000000 ) ) ;
#182 = DIRECTION ( 'NONE',  ( 0.0000000000000000000, 0.0000000000000000000, 1.000000000000000000 ) ) ;
#183 = CARTESIAN_POINT ( 'NONE',  ( 0.0000000000000000000, -0.7068897963830799200, 0.0000000000000000000 ) ) ;
#184 = DIRECTION ( 'NONE',  ( 1.224646799147353200E-016, 0.0000000000000000000, -1.000000000000000000 ) ) ;
#185 = DIRECTION ( 'NONE',  ( -1.000000000000000000, 0.0000000000000000000, -1.224646799147353200E-016 ) ) ;
#186 = CARTESIAN_POINT ( 'NONE',  ( 0.0000000000000000000, -0.7200000000000000800, 0.0000000000000000000 ) ) ;
#187 = FILL_AREA_STYLE_COLOUR ( '', #17 ) ;
#188 = DIRECTION ( 'NONE',  ( 1.000000000000000000, 0.0000000000000000000, 0.0000000000000000000 ) ) ;
#189 =( NAMED_UNIT ( * ) PLANE_ANGLE_UNIT ( ) SI_UNIT ( $, .RADIAN. ) );
#190 = CARTESIAN_POINT ( 'NONE',  ( 0.0000000000000000000, 0.1600000000000000000, 0.0000000000000000000 ) ) ;
#191 = DIRECTION ( 'NONE',  ( -0.0000000000000000000, 1.000000000000000000, -0.0000000000000000000 ) ) ;
#192 = DIRECTION ( 'NONE',  ( 0.0000000000000000000, 0.0000000000000000000, 1.000000000000000000 ) ) ;
#193 = SPHERICAL_SURFACE ( 'NONE', #59, 0.02689999999999843900 ) ;
#194 = CARTESIAN_POINT ( 'NONE',  ( 0.0000000000000000000, 0.1600000000000000000, 0.0000000000000000000 ) ) ;
#195 = ORIENTED_EDGE ( 'NONE', *, *, #9, .F. ) ;
#196 = ORIENTED_EDGE ( 'NONE', *, *, #102, .F. ) ;
#197 = DIRECTION ( 'NONE',  ( -0.0000000000000000000, 1.000000000000000000, -0.0000000000000000000 ) ) ;
#198 = ORIENTED_EDGE ( 'NONE', *, *, #4, .F. ) ;
#199 = DIRECTION ( 'NONE',  ( 0.0000000000000000000, 0.0000000000000000000, 1.000000000000000000 ) ) ;
#200 = VERTEX_POINT ( 'NONE', #237 ) ;
#201 = DIRECTION ( 'NONE',  ( 0.0000000000000000000, 0.0000000000000000000, 1.000000000000000000 ) ) ;
#202 =( LENGTH_UNIT ( ) NAMED_UNIT ( * ) SI_UNIT ( $, .METRE. ) );
#203 = VERTEX_POINT ( 'NONE', #252 ) ;
#204 = VERTEX_POINT ( 'NONE', #253 ) ;
#205 = ORIENTED_EDGE ( 'NONE', *, *, #342, .F. ) ;
#206 = LENGTH_MEASURE_WITH_UNIT ( LENGTH_MEASURE( 0.02539999999999999900 ), #202 );
#207 =( CONVERSION_BASED_UNIT ( 'INCH', #206 ) LENGTH_UNIT ( ) NAMED_UNIT ( #12 ) );
#208 = ORIENTED_EDGE ( 'NONE', *, *, #343, .T. ) ;
#209 = ORIENTED_EDGE ( 'NONE', *, *, #345, .F. ) ;
#210 =( NAMED_UNIT ( * ) PLANE_ANGLE_UNIT ( ) SI_UNIT ( $, .RADIAN. ) );
#211 = ORIENTED_EDGE ( 'NONE', *, *, #348, .F. ) ;
#212 = ORIENTED_EDGE ( 'NONE', *, *, #346, .F. ) ;
#213 =( NAMED_UNIT ( * ) SI_UNIT ( $, .STERADIAN. ) SOLID_ANGLE_UNIT ( ) );
#214 = ORIENTED_EDGE ( 'NONE', *, *, #101, .T. ) ;
#215 = ORIENTED_EDGE ( 'NONE', *, *, #347, .T. ) ;
#216 = ORIENTED_EDGE ( 'NONE', *, *, #8, .T. ) ;
#217 = ORIENTED_EDGE ( 'NONE', *, *, #344, .F. ) ;
#218 = DIRECTION ( 'NONE',  ( -0.0000000000000000000, 1.000000000000000000, -0.0000000000000000000 ) ) ;
#219 = PRODUCT_CONTEXT ( 'NONE', #80, 'mechanical' ) ;
#220 = SHAPE_DEFINITION_REPRESENTATION ( #81, #1 ) ;
#221 = APPLICATION_PROTOCOL_DEFINITION ( 'draft international standard', 'automotive_design', 1998, #80 ) ;
#222 = FILL_AREA_STYLE ('',( #187 ) ) ;
#223 = SURFACE_STYLE_FILL_AREA ( #222 ) ;
#224 = SURFACE_SIDE_STYLE ('',( #223 ) ) ;
#225 = SURFACE_STYLE_USAGE ( .BOTH. , #224 ) ;
#226 = PRESENTATION_STYLE_ASSIGNMENT (( #225 ) ) ;
#227 =( LENGTH_UNIT ( ) NAMED_UNIT ( * ) SI_UNIT ( $, .METRE. ) );
#228 = LENGTH_MEASURE_WITH_UNIT ( LENGTH_MEASURE( 0.02539999999999999900 ), #227 );
#229 = CARTESIAN_POINT ( 'NONE',  ( 0.0000000000000000000, 0.01000000000000001600, 0.0000000000000000000 ) ) ;
#230 =( CONVERSION_BASED_UNIT ( 'INCH', #228 ) LENGTH_UNIT ( ) NAMED_UNIT ( #11 ) );
#231 = EDGE_LOOP ( 'NONE', ( #136, #121 ) ) ;
#232 = FACE_OUTER_BOUND ( 'NONE', #296, .T. ) ;
#233 =( NAMED_UNIT ( * ) PLANE_ANGLE_UNIT ( ) SI_UNIT ( $, .RADIAN. ) );
#234 = EDGE_LOOP ( 'NONE', ( #196, #304, #208, #236 ) ) ;
#235 =( NAMED_UNIT ( * ) SI_UNIT ( $, .STERADIAN. ) SOLID_ANGLE_UNIT ( ) );
#236 = ORIENTED_EDGE ( 'NONE', *, *, #346, .T. ) ;
#237 = CARTESIAN_POINT ( 'NONE',  ( 0.02348898808213775000, -0.7200000000000000800, 0.0000000000000000000 ) ) ;
#238 = CARTESIAN_POINT ( 'NONE',  ( 0.0000000000000000000, -0.7068897963830799200, 0.0000000000000000000 ) ) ;
#239 = DIRECTION ( 'NONE',  ( 0.0000000000000000000, 0.0000000000000000000, 1.000000000000000000 ) ) ;
#240 = DIRECTION ( 'NONE',  ( 1.000000000000000000, 0.0000000000000000000, 0.0000000000000000000 ) ) ;
#241 = FACE_OUTER_BOUND ( 'NONE', #308, .T. ) ;
#242 = FILL_AREA_STYLE_COLOUR ( '', #22 ) ;
#243 = DIRECTION ( 'NONE',  ( 0.0000000000000000000, 0.0000000000000000000, 1.000000000000000000 ) ) ;
#244 = DIRECTION ( 'NONE',  ( -0.0000000000000000000, 1.000000000000000000, -0.0000000000000000000 ) ) ;
#245 = CARTESIAN_POINT ( 'NONE',  ( 0.0000000000000000000, 0.0000000000000000000, 0.0000000000000000000 ) ) ;
#246 = VERTEX_POINT ( 'NONE', #250 ) ;
#247 = DIRECTION ( 'NONE',  ( 1.000000000000000000, 0.0000000000000000000, 0.0000000000000000000 ) ) ;
#248 = DIRECTION ( 'NONE',  ( -0.0000000000000000000, 1.000000000000000000, -0.0000000000000000000 ) ) ;
#249 = DIRECTION ( 'NONE',  ( 0.0000000000000000000, 0.0000000000000000000, 1.000000000000000000 ) ) ;
#250 = CARTESIAN_POINT ( 'NONE',  ( 0.02689999999999843900, -0.7068897963830799200, 0.0000000000000000000 ) ) ;
#251 = DIRECTION ( 'NONE',  ( -0.0000000000000000000, 1.000000000000000000, -0.0000000000000000000 ) ) ;
#252 = CARTESIAN_POINT ( 'NONE',  ( 3.294299889706189700E-018, -0.7068897963830799200, -0.02689999999999844300 ) ) ;
#253 = CARTESIAN_POINT ( 'NONE',  ( -0.02348898808213775000, -0.7200000000000000800, -3.085435648353110400E-018 ) ) ;
#254 = DIRECTION ( 'NONE',  ( 0.0000000000000000000, 0.0000000000000000000, 1.000000000000000000 ) ) ;
#255 = DIRECTION ( 'NONE',  ( -0.0000000000000000000, 1.000000000000000000, -0.0000000000000000000 ) ) ;
#256 = CARTESIAN_POINT ( 'NONE',  ( 0.02689999999999843900, 0.01000000000000001600, 0.0000000000000000000 ) ) ;
#257 = CARTESIAN_POINT ( 'NONE',  ( 0.0000000000000000000, 0.0000000000000000000, 0.0000000000000000000 ) ) ;
#258 = CARTESIAN_POINT ( 'NONE',  ( 0.0000000000000000000, -0.7200000000000000800, 0.0000000000000000000 ) ) ;
#259 = CARTESIAN_POINT ( 'NONE',  ( 0.02348898808213773600, -0.7200000000000000800, 0.0000000000000000000 ) ) ;
#260 = CARTESIAN_POINT ( 'NONE',  ( 0.0000000000000000000, -0.7068897963830799200, 0.0000000000000000000 ) ) ;
#261 = DIRECTION ( 'NONE',  ( 1.000000000000000000, 0.0000000000000000000, 0.0000000000000000000 ) ) ;
#262 = DIRECTION ( 'NONE',  ( 0.0000000000000000000, 0.0000000000000000000, -1.000000000000000000 ) ) ;
#263 = DIRECTION ( 'NONE',  ( 0.0000000000000000000, -1.000000000000000000, 0.0000000000000000000 ) ) ;
#264 = ORIENTED_EDGE ( 'NONE', *, *, #102, .T. ) ;
#265 = ORIENTED_EDGE ( 'NONE', *, *, #89, .F. ) ;
#266 = CYLINDRICAL_SURFACE ( 'NONE', #58, 0.02689999999999843900 ) ;
#267 = DIRECTION ( 'NONE',  ( 0.0000000000000000000, 0.0000000000000000000, 1.000000000000000000 ) ) ;
#268 = DIRECTION ( 'NONE',  ( -0.0000000000000000000, 1.000000000000000000, -0.0000000000000000000 ) ) ;
#269 = CARTESIAN_POINT ( 'NONE',  ( 0.0000000000000000000, 0.0000000000000000000, 0.0000000000000000000 ) ) ;
#270 = FACE_OUTER_BOUND ( 'NONE', #287, .T. ) ;
#271 = FACE_BOUND ( 'NONE', #231, .T. ) ;
#272 = DIRECTION ( 'NONE',  ( 0.0000000000000000000, 0.0000000000000000000, 1.000000000000000000 ) ) ;
#273 = CARTESIAN_POINT ( 'NONE',  ( 0.0000000000000000000, -0.7068897963830799200, 0.0000000000000000000 ) ) ;
#274 = SPHERICAL_SURFACE ( 'NONE', #18, 0.02689999999999843900 ) ;
#275 = PLANE ( 'NONE',  #50 ) ;
#276 = ORIENTED_EDGE ( 'NONE', *, *, #341, .T. ) ;
#277 = ORIENTED_EDGE ( 'NONE', *, *, #87, .F. ) ;
#278 = FACE_OUTER_BOUND ( 'NONE', #143, .T. ) ;
#279 = CYLINDRICAL_SURFACE ( 'NONE', #77, 0.02689999999999843900 ) ;
#280 = ORIENTED_EDGE ( 'NONE', *, *, #3, .F. ) ;
#281 = ORIENTED_EDGE ( 'NONE', *, *, #351, .T. ) ;
#282 = DIRECTION ( 'NONE',  ( 0.0000000000000000000, 0.0000000000000000000, 1.000000000000000000 ) ) ;
#283 = DIRECTION ( 'NONE',  ( -0.0000000000000000000, 1.000000000000000000, -0.0000000000000000000 ) ) ;
#284 = DIRECTION ( 'NONE',  ( 0.0000000000000000000, 0.0000000000000000000, 1.000000000000000000 ) ) ;
#285 = VERTEX_POINT ( 'NONE', #175 ) ;
#286 = EDGE_LOOP ( 'NONE', ( #205, #276, #103, #212 ) ) ;
#287 = EDGE_LOOP ( 'NONE', ( #198, #322, #323, #328, #324 ) ) ;
#288 =( NAMED_UNIT ( * ) SI_UNIT ( $, .STERADIAN. ) SOLID_ANGLE_UNIT ( ) );
#289 = VERTEX_POINT ( 'NONE', #113 ) ;
#290 = VERTEX_POINT ( 'NONE', #327 ) ;
#291 =( LENGTH_UNIT ( ) NAMED_UNIT ( * ) SI_UNIT ( $, .METRE. ) );
#292 = CARTESIAN_POINT ( 'NONE',  ( 0.0000000000000000000, 0.0000000000000000000, 0.0000000000000000000 ) ) ;
#293 = DIRECTION ( 'NONE',  ( 0.0000000000000000000, 0.0000000000000000000, -1.000000000000000000 ) ) ;
#294 = CARTESIAN_POINT ( 'NONE',  ( 0.0000000000000000000, -0.7068897963830799200, 0.0000000000000000000 ) ) ;
#295 = VERTEX_POINT ( 'NONE', #124 ) ;
#296 = EDGE_LOOP ( 'NONE', ( #215, #105, #209, #217 ) ) ;
#297 = EDGE_LOOP ( 'NONE', ( #138, #265 ) ) ;
#298 = EDGE_LOOP ( 'NONE', ( #305, #281 ) ) ;
#299 = CYLINDRICAL_SURFACE ( 'NONE', #26, 0.02000000000000000000 ) ;
#300 = ORIENTED_EDGE ( 'NONE', *, *, #89, .T. ) ;
#301 = ORIENTED_EDGE ( 'NONE', *, *, #88, .F. ) ;
#302 = CARTESIAN_POINT ( 'NONE',  ( 3.294299889706188900E-018, 0.0000000000000000000, -0.02689999999999843900 ) ) ;
#303 = ORIENTED_EDGE ( 'NONE', *, *, #5, .F. ) ;
#304 = ORIENTED_EDGE ( 'NONE', *, *, #350, .F. ) ;
#305 = ORIENTED_EDGE ( 'NONE', *, *, #350, .T. ) ;
#306 = CARTESIAN_POINT ( 'NONE',  ( 0.0000000000000000000, 0.1275240473580836200, 0.0000000000000000000 ) ) ;
#307 = EDGE_LOOP ( 'NONE', ( #319, #325 ) ) ;
#308 = EDGE_LOOP ( 'NONE', ( #150, #300, #214, #303, #301 ) ) ;
#309 = DIRECTION ( 'NONE',  ( -0.0000000000000000000, 1.000000000000000000, -0.0000000000000000000 ) ) ;
#310 = CARTESIAN_POINT ( 'NONE',  ( 0.0000000000000000000, -0.7068897963830799200, 0.0000000000000000000 ) ) ;
#311 = VERTEX_POINT ( 'NONE', #331 ) ;
#312 = VERTEX_POINT ( 'NONE', #109 ) ;
#313 = VERTEX_POINT ( 'NONE', #137 ) ;
#314 = ORIENTED_EDGE ( 'NONE', *, *, #345, .T. ) ;
#315 = VERTEX_POINT ( 'NONE', #107 ) ;
#316 = VERTEX_POINT ( 'NONE', #329 ) ;
#317 = CYLINDRICAL_SURFACE ( 'NONE', #41, 0.02000000000000000000 ) ;
#318 = LINE ( 'NONE', #130, #70 ) ;
#319 = ORIENTED_EDGE ( 'NONE', *, *, #9, .T. ) ;
#320 = FACE_OUTER_BOUND ( 'NONE', #234, .T. ) ;
#321 = ORIENTED_EDGE ( 'NONE', *, *, #4, .T. ) ;
#322 = ORIENTED_EDGE ( 'NONE', *, *, #348, .T. ) ;
#323 = ORIENTED_EDGE ( 'NONE', *, *, #88, .T. ) ;
#324 = ORIENTED_EDGE ( 'NONE', *, *, #90, .F. ) ;
#325 = ORIENTED_EDGE ( 'NONE', *, *, #90, .T. ) ;
#326 = ORIENTED_EDGE ( 'NONE', *, *, #3, .T. ) ;
#327 = CARTESIAN_POINT ( 'NONE',  ( 2.449293598294706800E-018, 0.1275240473580836200, -0.02000000000000000000 ) ) ;
#328 = ORIENTED_EDGE ( 'NONE', *, *, #87, .T. ) ;
#329 = CARTESIAN_POINT ( 'NONE',  ( 0.0000000000000000000, 0.1275240473580836200, 0.02000000000000000000 ) ) ;
#330 = LINE ( 'NONE', #157, #57 ) ;
#331 = CARTESIAN_POINT ( 'NONE',  ( -0.02689999999999843900, -0.7068897963830799200, -3.294299889706189300E-018 ) ) ;
#332 = LINE ( 'NONE', #129, #44 ) ;
#333 = CARTESIAN_POINT ( 'NONE',  ( 0.0000000000000000000, 0.01000000000000001600, 0.0000000000000000000 ) ) ;
#334 = DIRECTION ( 'NONE',  ( -0.0000000000000000000, 1.000000000000000000, 0.0000000000000000000 ) ) ;
#335 = PLANE ( 'NONE',  #72 ) ;
#336 = CARTESIAN_POINT ( 'NONE',  ( 0.0000000000000000000, -0.7068897963830799200, 0.02689999999999844300 ) ) ;
#337 = DIRECTION ( 'NONE',  ( 0.0000000000000000000, 0.0000000000000000000, 1.000000000000000000 ) ) ;
#338 = CARTESIAN_POINT ( 'NONE',  ( 0.001249999999999980500, 0.1600000000000000000, 0.0000000000000000000 ) ) ;
#339 = DIRECTION ( 'NONE',  ( 0.0000000000000000000, -0.0000000000000000000, -1.000000000000000000 ) ) ;
#340 = ORIENTED_EDGE ( 'NONE', *, *, #343, .F. ) ;
#341 = EDGE_CURVE ( 'NONE', #315, #313, #60, .T. ) ;
#342 = EDGE_CURVE ( 'NONE', #315, #290, #332, .T. ) ;
#343 = EDGE_CURVE ( 'NONE', #285, #290, #330, .T. ) ;
#344 = EDGE_CURVE ( 'NONE', #313, #316, #106, .T. ) ;
#345 = EDGE_CURVE ( 'NONE', #316, #290, #46, .T. ) ;
#346 = EDGE_CURVE ( 'NONE', #290, #316, #47, .T. ) ;
#347 = EDGE_CURVE ( 'NONE', #313, #315, #52, .T. ) ;
#348 = EDGE_CURVE ( 'NONE', #203, #311, #35, .T. ) ;
#349 = EDGE_CURVE ( 'NONE', #204, #311, #33, .T. ) ;
#350 = EDGE_CURVE ( 'NONE', #285, #295, #31, .T. ) ;
#351 = EDGE_CURVE ( 'NONE', #295, #285, #45, .T. ) ;
ENDSEC;
END-ISO-10303-21;
