ISO-10303-21;
HEADER;
FILE_DESCRIPTION (( 'STEP AP203' ),
    '1' );
FILE_NAME ('X39-2520.STEP',
    '2020-04-06T14:38:55',
    ( '' ),
    ( '' ),
    'SwSTEP 2.0',
    'SolidWorks 2019',
    '' );
FILE_SCHEMA (( 'CONFIG_CONTROL_DESIGN' ));
ENDSEC;

DATA;
#1 = EDGE_CURVE ( 'NONE', #200, #200, #181, .T. ) ;
#2 = PLANE ( 'NONE',  #126 ) ;
#3 = CIRCLE ( 'NONE', #278, 0.01050000000000000412 ) ;
#4 = VERTEX_POINT ( 'NONE', #80 ) ;
#5 = VERTEX_POINT ( 'NONE', #167 ) ;
#6 = EDGE_LOOP ( 'NONE', ( #63 ) ) ;
#7 = EDGE_CURVE ( 'NONE', #199, #199, #168, .T. ) ;
#8 = CARTESIAN_POINT ( 'NONE',  ( 1.176039230484541287, -6.975083798395607926E-18, -0.01309999999999999706 ) ) ;
#9 = CARTESIAN_POINT ( 'NONE',  ( 0.02999999999999995379, 1.299362295187570422E-16, -1.214019837986437009E-16 ) ) ;
#10 = EDGE_LOOP ( 'NONE', ( #140 ) ) ;
#11 = AXIS2_PLACEMENT_3D ( 'NONE', #25, #351, #191 ) ;
#12 = PERSON_AND_ORGANIZATION_ROLE ( 'design_owner' ) ;
#13 = FACE_OUTER_BOUND ( 'NONE', #98, .T. ) ;
#14 = DATE_TIME_ROLE ( 'creation_date' ) ;
#15 = ORIENTED_EDGE ( 'NONE', *, *, #151, .F. ) ;
#16 = AXIS2_PLACEMENT_3D ( 'NONE', #202, #304, #177 ) ;
#17 = ORIENTED_EDGE ( 'NONE', *, *, #7, .T. ) ;
#18 = DIRECTION ( 'NONE',  ( 0.0000000000000000000, -5.493903235864683259E-16, -1.000000000000000000 ) ) ;
#19 = AXIS2_PLACEMENT_3D ( 'NONE', #20, #93, #343 ) ;
#20 = CARTESIAN_POINT ( 'NONE',  ( 0.0000000000000000000, 0.0000000000000000000, 0.0000000000000000000 ) ) ;
#21 = FACE_OUTER_BOUND ( 'NONE', #6, .T. ) ;
#22 = CC_DESIGN_PERSON_AND_ORGANIZATION_ASSIGNMENT ( #308, #257, ( #317 ) ) ;
#23 = DIRECTION ( 'NONE',  ( 1.000000000000000000, 4.878909776184769953E-19, -3.469446951953614189E-18 ) ) ;
#24 = DIRECTION ( 'NONE',  ( 1.000000000000000000, -1.131848689187779080E-16, 1.079953945459810363E-16 ) ) ;
#25 = CARTESIAN_POINT ( 'NONE',  ( 0.0000000000000000000, 1.333317755863203649E-16, -1.246418456350231216E-16 ) ) ;
#26 = AXIS2_PLACEMENT_3D ( 'NONE', #316, #72, #267 ) ;
#27 = DIRECTION ( 'NONE',  ( 0.0000000000000000000, 0.02195413218919509135, -0.9997589789943470695 ) ) ;
#28 = CC_DESIGN_PERSON_AND_ORGANIZATION_ASSIGNMENT ( #203, #12, ( #105 ) ) ;
#29 = ADVANCED_BREP_SHAPE_REPRESENTATION ( 'X39-2520', ( #182, #19 ), #166 ) ;
#30 = CARTESIAN_POINT ( 'NONE',  ( 1.094999999999999973, 2.197330881275839167E-18, -0.01309999999999999533 ) ) ;
#31 = CONICAL_SURFACE ( 'NONE', #232, 0.01176794919243112116, 1.047197551196596521 ) ;
#32 = DIRECTION ( 'NONE',  ( 1.000000000000000000, -1.131848689187779080E-16, 1.079953945459810363E-16 ) ) ;
#33 = ADVANCED_FACE ( 'NONE', ( #57, #13 ), #353, .F. ) ;
#34 = ORIENTED_EDGE ( 'NONE', *, *, #186, .F. ) ;
#35 = FACE_OUTER_BOUND ( 'NONE', #118, .T. ) ;
#36 = DIRECTION ( 'NONE',  ( 0.0000000000000000000, 5.493903235864684245E-16, 1.000000000000000000 ) ) ;
#37 = EDGE_LOOP ( 'NONE', ( #147 ) ) ;
#38 = PERSON ( 'UNSPECIFIED', 'UNSPECIFIED', 'UNSPECIFIED', ('UNSPECIFIED'), ('UNSPECIFIED'), ('UNSPECIFIED') ) ;
#39 = EDGE_LOOP ( 'NONE', ( #281 ) ) ;
#40 = LOCAL_TIME ( 10, 38, 55.00000000000000000, #64 ) ;
#41 = EDGE_LOOP ( 'NONE', ( #94 ) ) ;
#42 = ORIENTED_EDGE ( 'NONE', *, *, #195, .F. ) ;
#43 = CALENDAR_DATE ( 2020, 6, 4 ) ;
#44 = APPLICATION_PROTOCOL_DEFINITION ( 'international standard', 'config_control_design', 1994, #256 ) ;
#45 = FACE_BOUND ( 'NONE', #39, .T. ) ;
#46 = FACE_OUTER_BOUND ( 'NONE', #145, .T. ) ;
#47 = DIRECTION ( 'NONE',  ( 1.000000000000000000, -1.131848689187779080E-16, 1.079953945459810363E-16 ) ) ;
#48 = SHAPE_DEFINITION_REPRESENTATION ( #355, #29 ) ;
#49 = EDGE_CURVE ( 'NONE', #50, #50, #223, .T. ) ;
#50 = VERTEX_POINT ( 'NONE', #143 ) ;
#51 = ADVANCED_FACE ( 'NONE', ( #289, #236 ), #350, .T. ) ;
#52 = FACE_OUTER_BOUND ( 'NONE', #339, .T. ) ;
#53 = VERTEX_POINT ( 'NONE', #323 ) ;
#54 = ORIENTED_EDGE ( 'NONE', *, *, #134, .T. ) ;
#55 = APPROVAL ( #205, 'UNSPECIFIED' ) ;
#56 = COORDINATED_UNIVERSAL_TIME_OFFSET ( 5, 0, .BEHIND. ) ;
#57 = FACE_OUTER_BOUND ( 'NONE', #208, .T. ) ;
#58 = ADVANCED_FACE ( 'NONE', ( #210, #313 ), #345, .T. ) ;
#59 = PERSON_AND_ORGANIZATION ( #38, #265 ) ;
#60 = CARTESIAN_POINT ( 'NONE',  ( 1.176539230484541232, 1.653370061277362545E-19, 2.418972759979840609E-18 ) ) ;
#61 = CIRCLE ( 'NONE', #11, 0.01377999999999999191 ) ;
#62 = PERSON_AND_ORGANIZATION ( #38, #265 ) ;
#63 = ORIENTED_EDGE ( 'NONE', *, *, #358, .T. ) ;
#64 = COORDINATED_UNIVERSAL_TIME_OFFSET ( 5, 0, .BEHIND. ) ;
#65 = EDGE_CURVE ( 'NONE', #5, #5, #3, .T. ) ;
#66 = AXIS2_PLACEMENT_3D ( 'NONE', #60, #347, #125 ) ;
#67 = AXIS2_PLACEMENT_3D ( 'NONE', #188, #270, #238 ) ;
#68 = DATE_AND_TIME ( #262, #40 ) ;
#69 = CARTESIAN_POINT ( 'NONE',  ( 0.0000000000000000000, 0.01290000000000014052, -1.238519484495730726E-16 ) ) ;
#70 = DIRECTION ( 'NONE',  ( -1.000000000000000000, 1.131848689187779080E-16, -1.079953945459810486E-16 ) ) ;
#71 = CC_DESIGN_APPROVAL ( #269, ( #104 ) ) ;
#72 = DIRECTION ( 'NONE',  ( -1.000000000000000000, 1.131848689187779080E-16, -1.079953945459810363E-16 ) ) ;
#73 = DIRECTION ( 'NONE',  ( -1.000000000000000000, 1.131848689187779080E-16, -1.079953945459810363E-16 ) ) ;
#74 = DIRECTION ( 'NONE',  ( 1.000000000000000000, -1.131848689187779080E-16, 1.079953945459810363E-16 ) ) ;
#75 = ADVANCED_FACE ( 'NONE', ( #103, #213 ), #217, .T. ) ;
#76 = FACE_OUTER_BOUND ( 'NONE', #37, .T. ) ;
#77 = AXIS2_PLACEMENT_3D ( 'NONE', #9, #329, #36 ) ;
#78 = FACE_OUTER_BOUND ( 'NONE', #230, .T. ) ;
#79 = ADVANCED_FACE ( 'NONE', ( #45, #192 ), #190, .T. ) ;
#80 = CARTESIAN_POINT ( 'NONE',  ( 0.03499155286459022102, 1.378318722453088330E-16, 0.01539999999999983223 ) ) ;
#81 = CARTESIAN_POINT ( 'NONE',  ( 1.091504891252730536, 9.789937545675131142E-18, -6.764344255316356144E-18 ) ) ;
#82 = CIRCLE ( 'NONE', #326, 0.01435176470588231390 ) ;
#83 = APPLICATION_CONTEXT ( 'configuration controlled 3d designs of mechanical parts and assemblies' ) ;
#84 = DIRECTION ( 'NONE',  ( 0.0000000000000000000, -5.493903235864683259E-16, -1.000000000000000000 ) ) ;
#85 = ORIENTED_EDGE ( 'NONE', *, *, #65, .T. ) ;
#86 = CARTESIAN_POINT ( 'NONE',  ( 1.176039230484541287, 2.219294405871258553E-19, 2.364975062706849570E-18 ) ) ;
#87 = EDGE_CURVE ( 'NONE', #221, #221, #115, .T. ) ;
#88 = CIRCLE ( 'NONE', #183, 0.01539999999999995366 ) ;
#89 = VERTEX_POINT ( 'NONE', #331 ) ;
#90 = APPROVAL_DATE_TIME ( #154, #328 ) ;
#91 = ADVANCED_FACE ( 'NONE', ( #214, #163 ), #31, .T. ) ;
#92 = DIRECTION ( 'NONE',  ( 0.0000000000000000000, -5.493903235864683259E-16, -1.000000000000000000 ) ) ;
#93 = DIRECTION ( 'NONE',  ( 0.0000000000000000000, 0.0000000000000000000, 1.000000000000000000 ) ) ;
#94 = ORIENTED_EDGE ( 'NONE', *, *, #65, .F. ) ;
#95 = AXIS2_PLACEMENT_3D ( 'NONE', #266, #187, #314 ) ;
#96 = ORIENTED_EDGE ( 'NONE', *, *, #358, .F. ) ;
#97 = PERSON_AND_ORGANIZATION ( #38, #265 ) ;
#98 = EDGE_LOOP ( 'NONE', ( #96 ) ) ;
#99 =( NAMED_UNIT ( * ) PLANE_ANGLE_UNIT ( ) SI_UNIT ( $, .RADIAN. ) );
#100 = DIRECTION ( 'NONE',  ( -1.000000000000000000, 1.131848689187779080E-16, -1.079953945459810486E-16 ) ) ;
#101 = AXIS2_PLACEMENT_3D ( 'NONE', #112, #297, #84 ) ;
#102 = CARTESIAN_POINT ( 'NONE',  ( 0.0000000000000000000, 1.644113427894593432E-16, -1.532394862795283160E-16 ) ) ;
#103 = FACE_OUTER_BOUND ( 'NONE', #142, .T. ) ;
#104 = SECURITY_CLASSIFICATION ( '', '', #180 ) ;
#105 = PRODUCT ( 'X39-2520', 'X39-2520', '', ( #149 ) ) ;
#106 = FACE_OUTER_BOUND ( 'NONE', #121, .T. ) ;
#107 = ADVANCED_FACE ( 'NONE', ( #106, #76 ), #160, .T. ) ;
#108 = CARTESIAN_POINT ( 'NONE',  ( 0.03499155286459022102, 1.293712612620772283E-16, -1.208629190776351323E-16 ) ) ;
#109 = DESIGN_CONTEXT ( 'detailed design', #256, 'design' ) ;
#110 = DIRECTION ( 'NONE',  ( -1.040834085586083948E-17, -0.02195413218919509482, 0.9997589789943470695 ) ) ;
#111 = CC_DESIGN_SECURITY_CLASSIFICATION ( #104, ( #324 ) ) ;
#112 = CARTESIAN_POINT ( 'NONE',  ( 1.177999999999999936, 0.0000000000000000000, 2.576729140142541146E-18 ) ) ;
#113 = VERTEX_POINT ( 'NONE', #301 ) ;
#114 = EDGE_LOOP ( 'NONE', ( #15 ) ) ;
#115 = CIRCLE ( 'NONE', #357, 0.01310000000000000053 ) ;
#116 = ADVANCED_FACE ( 'NONE', ( #78 ), #215, .F. ) ;
#117 = CARTESIAN_POINT ( 'NONE',  ( -1.188441123647168375E-18, -0.01049999999999983759, -1.532394862795283160E-16 ) ) ;
#118 = EDGE_LOOP ( 'NONE', ( #279 ) ) ;
#119 = APPROVAL_ROLE ( '' ) ;
#120 = CALENDAR_DATE ( 2020, 6, 4 ) ;
#121 = EDGE_LOOP ( 'NONE', ( #225 ) ) ;
#122 = LOCAL_TIME ( 10, 38, 55.00000000000000000, #303 ) ;
#123 = CALENDAR_DATE ( 2020, 6, 4 ) ;
#124 = EDGE_LOOP ( 'NONE', ( #284 ) ) ;
#125 = DIRECTION ( 'NONE',  ( 0.0000000000000000000, -5.493903235864683259E-16, -1.000000000000000000 ) ) ;
#126 = AXIS2_PLACEMENT_3D ( 'NONE', #165, #277, #110 ) ;
#127 = CARTESIAN_POINT ( 'NONE',  ( 1.177999999999999936, 7.855762034577600155E-35, 2.576729140142541146E-18 ) ) ;
#128 = AXIS2_PLACEMENT_3D ( 'NONE', #153, #263, #18 ) ;
#129 = EDGE_CURVE ( 'NONE', #113, #113, #61, .T. ) ;
#130 = CARTESIAN_POINT ( 'NONE',  ( 1.176999999999999824, 1.131848689187784311E-19, 2.468733745596559453E-18 ) ) ;
#131 = EDGE_CURVE ( 'NONE', #275, #275, #254, .T. ) ;
#132 = FACE_OUTER_BOUND ( 'NONE', #287, .T. ) ;
#133 = DIRECTION ( 'NONE',  ( 0.0000000000000000000, 5.493903235864682273E-16, 1.000000000000000000 ) ) ;
#134 = EDGE_CURVE ( 'NONE', #138, #138, #82, .T. ) ;
#135 = AXIS2_PLACEMENT_3D ( 'NONE', #291, #24, #268 ) ;
#136 = PRODUCT_RELATED_PRODUCT_CATEGORY ( 'detail', '', ( #105 ) ) ;
#137 = DIRECTION ( 'NONE',  ( -1.000000000000000000, 1.131848689187779080E-16, -1.079953945459810363E-16 ) ) ;
#138 = VERTEX_POINT ( 'NONE', #246 ) ;
#139 = DIRECTION ( 'NONE',  ( 0.0000000000000000000, -5.493903235864683259E-16, -1.000000000000000000 ) ) ;
#140 = ORIENTED_EDGE ( 'NONE', *, *, #131, .T. ) ;
#141 = DIRECTION ( 'NONE',  ( 1.000000000000000000, -1.131848689187779080E-16, 1.079953945459810363E-16 ) ) ;
#142 = EDGE_LOOP ( 'NONE', ( #234 ) ) ;
#143 = CARTESIAN_POINT ( 'NONE',  ( 1.176539230484541232, -7.105280579622234619E-18, -0.01323397459621556208 ) ) ;
#144 = TOROIDAL_SURFACE ( 'NONE', #312, 0.009899999999999943567, 0.005500000000000010089 ) ;
#145 = EDGE_LOOP ( 'NONE', ( #333 ) ) ;
#146 = PERSON_AND_ORGANIZATION ( #38, #265 ) ;
#147 = ORIENTED_EDGE ( 'NONE', *, *, #261, .F. ) ;
#148 = ORIENTED_EDGE ( 'NONE', *, *, #87, .F. ) ;
#149 = MECHANICAL_CONTEXT ( 'NONE', #83, 'mechanical' ) ;
#150 = ORIENTED_EDGE ( 'NONE', *, *, #1, .F. ) ;
#151 = EDGE_CURVE ( 'NONE', #4, #4, #88, .T. ) ;
#152 = PERSON_AND_ORGANIZATION ( #38, #265 ) ;
#153 = CARTESIAN_POINT ( 'NONE',  ( 1.177999999999999936, 0.0000000000000000000, 2.576729140142541146E-18 ) ) ;
#154 = DATE_AND_TIME ( #43, #178 ) ;
#155 = DIRECTION ( 'NONE',  ( -1.079953945459809870E-16, 5.493903235864683259E-16, 1.000000000000000000 ) ) ;
#156 = DIRECTION ( 'NONE',  ( 0.0000000000000000000, -5.493903235864683259E-16, -1.000000000000000000 ) ) ;
#157 = ADVANCED_FACE ( 'NONE', ( #21, #46 ), #161, .T. ) ;
#158 = DIRECTION ( 'NONE',  ( 1.000000000000000000, -1.131848689187779080E-16, 1.079953945459810363E-16 ) ) ;
#159 = CC_DESIGN_DATE_AND_TIME_ASSIGNMENT ( #233, #14, ( #317 ) ) ;
#160 = TOROIDAL_SURFACE ( 'NONE', #315, 0.0005108695652171091773, 0.01488913043478288893 ) ;
#161 = CYLINDRICAL_SURFACE ( 'NONE', #67, 0.01377999999999999885 ) ;
#162 = DIRECTION ( 'NONE',  ( -1.131848689187779080E-16, -1.000000000000000000, 0.0000000000000000000 ) ) ;
#163 = FACE_BOUND ( 'NONE', #302, .T. ) ;
#164 = AXIS2_PLACEMENT_3D ( 'NONE', #228, #335, #92 ) ;
#165 = CARTESIAN_POINT ( 'NONE',  ( -0.2720000000000001306, 1.642786364435471001E-16, -1.522957967085969383E-16 ) ) ;
#166 =( GEOMETRIC_REPRESENTATION_CONTEXT ( 3 ) GLOBAL_UNCERTAINTY_ASSIGNED_CONTEXT ( ( #310 ) ) GLOBAL_UNIT_ASSIGNED_CONTEXT ( ( #264, #99, #227 ) ) REPRESENTATION_CONTEXT ( 'NONE', 'WORKASPACE' ) );
#167 = CARTESIAN_POINT ( 'NONE',  ( -0.2720000000000001306, 0.0002305183879867128032, -0.01049746927944079922 ) ) ;
#168 = CIRCLE ( 'NONE', #16, 0.01176794919243112116 ) ;
#169 = FACE_OUTER_BOUND ( 'NONE', #41, .T. ) ;
#170 = ORIENTED_EDGE ( 'NONE', *, *, #151, .T. ) ;
#171 = CIRCLE ( 'NONE', #77, 0.01378000000000000579 ) ;
#172 = DIRECTION ( 'NONE',  ( 1.000000000000000000, -1.131848689187779080E-16, 1.079953945459810363E-16 ) ) ;
#173 = AXIS2_PLACEMENT_3D ( 'NONE', #86, #141, #249 ) ;
#174 = DATE_TIME_ROLE ( 'classification_date' ) ;
#175 = ORIENTED_EDGE ( 'NONE', *, *, #129, .T. ) ;
#176 = PERSON_AND_ORGANIZATION_ROLE ( 'design_supplier' ) ;
#177 = DIRECTION ( 'NONE',  ( 0.0000000000000000000, -5.493903235864684245E-16, -1.000000000000000000 ) ) ;
#178 = LOCAL_TIME ( 10, 38, 55.00000000000000000, #341 ) ;
#179 = PERSON_AND_ORGANIZATION ( #38, #265 ) ;
#180 = SECURITY_CLASSIFICATION_LEVEL ( 'unclassified' ) ;
#181 = CIRCLE ( 'NONE', #164, 0.01349999999999999985 ) ;
#182 = MANIFOLD_SOLID_BREP ( 'Combine1', #330 ) ;
#183 = AXIS2_PLACEMENT_3D ( 'NONE', #189, #293, #292 ) ;
#184 = ORIENTED_EDGE ( 'NONE', *, *, #7, .F. ) ;
#185 = APPROVAL_DATE_TIME ( #68, #269 ) ;
#186 = EDGE_CURVE ( 'NONE', #224, #224, #354, .T. ) ;
#187 = DIRECTION ( 'NONE',  ( 1.000000000000000000, 4.878909776184769953E-19, -3.469446951953614189E-18 ) ) ;
#188 = CARTESIAN_POINT ( 'NONE',  ( -0.01029069263603925311, 1.344965262834139053E-16, -1.257531930464036080E-16 ) ) ;
#189 = CARTESIAN_POINT ( 'NONE',  ( 0.03499155286459022102, 1.293712612620772283E-16, -1.208629190776351323E-16 ) ) ;
#190 = CONICAL_SURFACE ( 'NONE', #295, 0.01349999999999999985, 0.5235987755983020353 ) ;
#191 = DIRECTION ( 'NONE',  ( -1.079953945459809993E-16, 5.493903235864690162E-16, 1.000000000000000000 ) ) ;
#192 = FACE_OUTER_BOUND ( 'NONE', #342, .T. ) ;
#193 = CIRCLE ( 'NONE', #212, 0.01390387501187195611 ) ;
#194 =( LENGTH_UNIT ( ) NAMED_UNIT ( * ) SI_UNIT ( $, .METRE. ) );
#195 = EDGE_CURVE ( 'NONE', #327, #327, #242, .T. ) ;
#196 = CARTESIAN_POINT ( 'NONE',  ( 1.094999999999999973, 9.394344120258568855E-18, -6.386888607173885803E-18 ) ) ;
#197 = CARTESIAN_POINT ( 'NONE',  ( 1.084999999999999964, 2.065581826214742164E-18, -0.01540000000000000570 ) ) ;
#198 = AXIS2_PLACEMENT_3D ( 'NONE', #102, #73, #162 ) ;
#199 = VERTEX_POINT ( 'NONE', #299 ) ;
#200 = VERTEX_POINT ( 'NONE', #296 ) ;
#201 = ORIENTED_EDGE ( 'NONE', *, *, #261, .T. ) ;
#202 = CARTESIAN_POINT ( 'NONE',  ( 1.177999999999999936, 1.571152406915520031E-34, 2.576729140142541146E-18 ) ) ;
#203 = PERSON_AND_ORGANIZATION ( #38, #265 ) ;
#204 = EDGE_LOOP ( 'NONE', ( #175 ) ) ;
#205 = APPROVAL_STATUS ( 'not_yet_approved' ) ;
#206 = CC_DESIGN_PERSON_AND_ORGANIZATION_ASSIGNMENT ( #62, #209, ( #324 ) ) ;
#207 = APPROVAL_ROLE ( '' ) ;
#208 = EDGE_LOOP ( 'NONE', ( #54 ) ) ;
#209 = PERSON_AND_ORGANIZATION_ROLE ( 'creator' ) ;
#210 = FACE_BOUND ( 'NONE', #309, .T. ) ;
#211 = ADVANCED_FACE ( 'NONE', ( #132, #271 ), #144, .T. ) ;
#212 = AXIS2_PLACEMENT_3D ( 'NONE', #81, #172, #139 ) ;
#213 = FACE_OUTER_BOUND ( 'NONE', #276, .T. ) ;
#214 = FACE_OUTER_BOUND ( 'NONE', #337, .T. ) ;
#215 = PLANE ( 'NONE',  #288 ) ;
#216 = CARTESIAN_POINT ( 'NONE',  ( -0.2720000000000001306, 1.642786364435471001E-16, -1.522957967085969383E-16 ) ) ;
#217 = CYLINDRICAL_SURFACE ( 'NONE', #95, 0.01050000000000000412 ) ;
#218 = ADVANCED_FACE ( 'NONE', ( #52, #219 ), #252, .T. ) ;
#219 = FACE_OUTER_BOUND ( 'NONE', #114, .T. ) ;
#220 = APPROVAL_PERSON_ORGANIZATION ( #146, #55, #119 ) ;
#221 = VERTEX_POINT ( 'NONE', #8 ) ;
#222 = DIRECTION ( 'NONE',  ( 1.079953945459809623E-16, -5.493903235864683259E-16, -1.000000000000000000 ) ) ;
#223 = CIRCLE ( 'NONE', #66, 0.01323397459621556381 ) ;
#224 = VERTEX_POINT ( 'NONE', #117 ) ;
#225 = ORIENTED_EDGE ( 'NONE', *, *, #195, .T. ) ;
#226 = CC_DESIGN_DATE_AND_TIME_ASSIGNMENT ( #311, #174, ( #104 ) ) ;
#227 =( NAMED_UNIT ( * ) SI_UNIT ( $, .STERADIAN. ) SOLID_ANGLE_UNIT ( ) );
#228 = CARTESIAN_POINT ( 'NONE',  ( 1.176999999999999824, 1.131848689187784311E-19, 2.468733745596559453E-18 ) ) ;
#229 = APPROVAL_DATE_TIME ( #231, #55 ) ;
#230 = EDGE_LOOP ( 'NONE', ( #17 ) ) ;
#231 = DATE_AND_TIME ( #120, #122 ) ;
#232 = AXIS2_PLACEMENT_3D ( 'NONE', #237, #356, #346 ) ;
#233 = DATE_AND_TIME ( #305, #239 ) ;
#234 = ORIENTED_EDGE ( 'NONE', *, *, #186, .T. ) ;
#235 = APPROVAL_STATUS ( 'not_yet_approved' ) ;
#236 = FACE_OUTER_BOUND ( 'NONE', #250, .T. ) ;
#237 = CARTESIAN_POINT ( 'NONE',  ( 1.177999999999999936, 1.571152406915520031E-34, 2.576729140142541146E-18 ) ) ;
#238 = DIRECTION ( 'NONE',  ( -1.548807144448625412E-16, 5.493903235864676357E-16, 1.000000000000000000 ) ) ;
#239 = LOCAL_TIME ( 10, 38, 55.00000000000000000, #334 ) ;
#240 = DIRECTION ( 'NONE',  ( -1.079953945459809870E-16, 5.493903235864683259E-16, 1.000000000000000000 ) ) ;
#241 = DIRECTION ( 'NONE',  ( 0.0000000000000000000, -5.493903235864683259E-16, -1.000000000000000000 ) ) ;
#242 = CIRCLE ( 'NONE', #135, 0.01540000000000000049 ) ;
#243 = DIRECTION ( 'NONE',  ( -1.000000000000000000, 1.131848689187779080E-16, -1.079953945459810363E-16 ) ) ;
#244 = DIMENSIONAL_EXPONENTS ( 1.000000000000000000, 0.0000000000000000000, 0.0000000000000000000, 0.0000000000000000000, 0.0000000000000000000, 0.0000000000000000000, 0.0000000000000000000 ) ;
#245 = DIRECTION ( 'NONE',  ( -1.079953945459809747E-16, 5.493903235864688190E-16, 1.000000000000000000 ) ) ;
#246 = CARTESIAN_POINT ( 'NONE',  ( 0.03176172454044353527, 1.376215496133774933E-16, 0.01435176470588219247 ) ) ;
#247 = APPROVAL_PERSON_ORGANIZATION ( #97, #269, #207 ) ;
#248 = FACE_OUTER_BOUND ( 'NONE', #258, .T. ) ;
#249 = DIRECTION ( 'NONE',  ( 1.079953945459809747E-16, -5.493903235864683259E-16, -1.000000000000000000 ) ) ;
#250 = EDGE_LOOP ( 'NONE', ( #148 ) ) ;
#251 = CC_DESIGN_PERSON_AND_ORGANIZATION_ASSIGNMENT ( #179, #286, ( #104 ) ) ;
#252 = CYLINDRICAL_SURFACE ( 'NONE', #101, 0.01540000000000000049 ) ;
#253 = ORIENTED_EDGE ( 'NONE', *, *, #87, .T. ) ;
#254 = CIRCLE ( 'NONE', #349, 0.01309999999999999012 ) ;
#255 = ORIENTED_EDGE ( 'NONE', *, *, #134, .F. ) ;
#256 = APPLICATION_CONTEXT ( 'configuration controlled 3d designs of mechanical parts and assemblies' ) ;
#257 = PERSON_AND_ORGANIZATION_ROLE ( 'creator' ) ;
#258 = EDGE_LOOP ( 'NONE', ( #253 ) ) ;
#259 = EDGE_LOOP ( 'NONE', ( #255 ) ) ;
#260 = CC_DESIGN_APPROVAL ( #55, ( #317 ) ) ;
#261 = EDGE_CURVE ( 'NONE', #89, #89, #193, .T. ) ;
#262 = CALENDAR_DATE ( 2020, 6, 4 ) ;
#263 = DIRECTION ( 'NONE',  ( 1.000000000000000000, -1.131848689187779080E-16, 1.079953945459810363E-16 ) ) ;
#264 =( CONVERSION_BASED_UNIT ( 'INCH', #336 ) LENGTH_UNIT ( ) NAMED_UNIT ( #244 ) );
#265 = ORGANIZATION ( 'UNSPECIFIED', 'UNSPECIFIED', '' ) ;
#266 = CARTESIAN_POINT ( 'NONE',  ( -0.2720000000000001306, 1.642786364435471001E-16, -1.522957967085969383E-16 ) ) ;
#267 = DIRECTION ( 'NONE',  ( -1.079953945459809747E-16, 5.493903235864676357E-16, 1.000000000000000000 ) ) ;
#268 = DIRECTION ( 'NONE',  ( 0.0000000000000000000, -5.493903235864683259E-16, -1.000000000000000000 ) ) ;
#269 = APPROVAL ( #283, 'UNSPECIFIED' ) ;
#270 = DIRECTION ( 'NONE',  ( -1.000000000000000000, 1.131848689187779080E-16, -1.079953945459810363E-16 ) ) ;
#271 = FACE_OUTER_BOUND ( 'NONE', #259, .T. ) ;
#272 = CARTESIAN_POINT ( 'NONE',  ( 0.03176172454044353527, 1.297368289575759459E-16, -1.212117256618171357E-16 ) ) ;
#273 = ADVANCED_FACE ( 'NONE', ( #169 ), #2, .T. ) ;
#274 = LOCAL_TIME ( 10, 38, 55.00000000000000000, #56 ) ;
#275 = VERTEX_POINT ( 'NONE', #30 ) ;
#276 = EDGE_LOOP ( 'NONE', ( #85 ) ) ;
#277 = DIRECTION ( 'NONE',  ( -1.000000000000000000, -1.829993922420570207E-19, -1.041486865082463136E-17 ) ) ;
#278 = AXIS2_PLACEMENT_3D ( 'NONE', #216, #23, #27 ) ;
#279 = ORIENTED_EDGE ( 'NONE', *, *, #49, .F. ) ;
#280 = FACE_OUTER_BOUND ( 'NONE', #300, .T. ) ;
#281 = ORIENTED_EDGE ( 'NONE', *, *, #49, .T. ) ;
#282 = ADVANCED_FACE ( 'NONE', ( #280, #325 ), #294, .F. ) ;
#283 = APPROVAL_STATUS ( 'not_yet_approved' ) ;
#284 = ORIENTED_EDGE ( 'NONE', *, *, #131, .F. ) ;
#285 = ORIENTED_EDGE ( 'NONE', *, *, #1, .T. ) ;
#286 = PERSON_AND_ORGANIZATION_ROLE ( 'classification_officer' ) ;
#287 = EDGE_LOOP ( 'NONE', ( #170 ) ) ;
#288 = AXIS2_PLACEMENT_3D ( 'NONE', #127, #70, #240 ) ;
#289 = FACE_OUTER_BOUND ( 'NONE', #10, .T. ) ;
#290 = CARTESIAN_POINT ( 'NONE',  ( 1.094999999999999973, 9.394344120258568855E-18, -6.386888607173885803E-18 ) ) ;
#291 = CARTESIAN_POINT ( 'NONE',  ( 1.084999999999999964, 1.052619280944635490E-17, -7.466842552633703499E-18 ) ) ;
#292 = DIRECTION ( 'NONE',  ( 0.0000000000000000000, 5.493903235864688190E-16, 1.000000000000000000 ) ) ;
#293 = DIRECTION ( 'NONE',  ( -1.000000000000000000, 1.131848689187779080E-16, -1.079953945459810363E-16 ) ) ;
#294 = TOROIDAL_SURFACE ( 'NONE', #344, 0.02109999999999998682, 0.007999999999999991493 ) ;
#295 = AXIS2_PLACEMENT_3D ( 'NONE', #130, #319, #241 ) ;
#296 = CARTESIAN_POINT ( 'NONE',  ( 1.176999999999999824, -7.303584499498544122E-18, -0.01349999999999999811 ) ) ;
#297 = DIRECTION ( 'NONE',  ( 1.000000000000000000, -1.131848689187779080E-16, 1.079953945459810363E-16 ) ) ;
#298 = CC_DESIGN_PERSON_AND_ORGANIZATION_ASSIGNMENT ( #152, #176, ( #324 ) ) ;
#299 = CARTESIAN_POINT ( 'NONE',  ( 1.177999999999999936, -6.465197414778853116E-18, -0.01176794919243111942 ) ) ;
#300 = EDGE_LOOP ( 'NONE', ( #201 ) ) ;
#301 = CARTESIAN_POINT ( 'NONE',  ( -1.488176536843617248E-18, 1.409023742453419079E-16, 0.01377999999999986874 ) ) ;
#302 = EDGE_LOOP ( 'NONE', ( #184 ) ) ;
#303 = COORDINATED_UNIVERSAL_TIME_OFFSET ( 5, 0, .BEHIND. ) ;
#304 = DIRECTION ( 'NONE',  ( 1.000000000000000000, -1.131848689187779080E-16, 1.079953945459810363E-16 ) ) ;
#305 = CALENDAR_DATE ( 2020, 6, 4 ) ;
#306 = APPLICATION_PROTOCOL_DEFINITION ( 'international standard', 'config_control_design', 1994, #83 ) ;
#307 = CC_DESIGN_APPROVAL ( #328, ( #324 ) ) ;
#308 = PERSON_AND_ORGANIZATION ( #38, #265 ) ;
#309 = EDGE_LOOP ( 'NONE', ( #34 ) ) ;
#310 = UNCERTAINTY_MEASURE_WITH_UNIT (LENGTH_MEASURE( 1.000000000000000082E-05 ), #264, 'distance_accuracy_value', 'NONE');
#311 = DATE_AND_TIME ( #123, #274 ) ;
#312 = AXIS2_PLACEMENT_3D ( 'NONE', #108, #137, #245 ) ;
#313 = FACE_OUTER_BOUND ( 'NONE', #204, .T. ) ;
#314 = DIRECTION ( 'NONE',  ( 0.0000000000000000000, 0.02195413218919509135, -0.9997589789943470695 ) ) ;
#315 = AXIS2_PLACEMENT_3D ( 'NONE', #318, #158, #348 ) ;
#316 = CARTESIAN_POINT ( 'NONE',  ( 0.02999999999999995379, 1.299362295187570422E-16, -1.214019837986437009E-16 ) ) ;
#317 = PRODUCT_DEFINITION ( 'UNKNOWN', '', #324, #109 ) ;
#318 = CARTESIAN_POINT ( 'NONE',  ( 1.084999999999999964, 1.052619280944635490E-17, -7.466842552633703499E-18 ) ) ;
#319 = DIRECTION ( 'NONE',  ( 1.000000000000000000, -1.131848689187779080E-16, 1.079953945459810363E-16 ) ) ;
#320 = ADVANCED_FACE ( 'NONE', ( #248, #35 ), #322, .F. ) ;
#321 = CARTESIAN_POINT ( 'NONE',  ( 1.176039230484541287, 2.219294405871262405E-19, 2.364975062706849184E-18 ) ) ;
#322 = TOROIDAL_SURFACE ( 'NONE', #173, 0.01410000000000000142, 0.001000000000000001105 ) ;
#323 = CARTESIAN_POINT ( 'NONE',  ( 0.02999999999999995379, 1.375068281777785852E-16, 0.01377999999999988436 ) ) ;
#324 = PRODUCT_DEFINITION_FORMATION_WITH_SPECIFIED_SOURCE ( 'ANY', '', #105, .NOT_KNOWN. ) ;
#325 = FACE_OUTER_BOUND ( 'NONE', #124, .T. ) ;
#326 = AXIS2_PLACEMENT_3D ( 'NONE', #272, #243, #133 ) ;
#327 = VERTEX_POINT ( 'NONE', #197 ) ;
#328 = APPROVAL ( #235, 'UNSPECIFIED' ) ;
#329 = DIRECTION ( 'NONE',  ( -1.000000000000000000, 1.131848689187779080E-16, -1.079953945459810363E-16 ) ) ;
#330 = CLOSED_SHELL ( 'NONE', ( #58, #218, #107, #282, #51, #320, #79, #91, #157, #33, #211, #116, #75, #273 ) ) ;
#331 = CARTESIAN_POINT ( 'NONE',  ( 1.091504891252730536, 2.151283153796985837E-18, -0.01390387501187196305 ) ) ;
#332 = AXIS2_PLACEMENT_3D ( 'NONE', #69, #100, #155 ) ;
#333 = ORIENTED_EDGE ( 'NONE', *, *, #129, .F. ) ;
#334 = COORDINATED_UNIVERSAL_TIME_OFFSET ( 5, 0, .BEHIND. ) ;
#335 = DIRECTION ( 'NONE',  ( 1.000000000000000000, -1.131848689187779080E-16, 1.079953945459810363E-16 ) ) ;
#336 = LENGTH_MEASURE_WITH_UNIT ( LENGTH_MEASURE( 0.02539999999999999897 ), #194 );
#337 = EDGE_LOOP ( 'NONE', ( #285 ) ) ;
#338 = APPROVAL_ROLE ( '' ) ;
#339 = EDGE_LOOP ( 'NONE', ( #42 ) ) ;
#340 = APPROVAL_PERSON_ORGANIZATION ( #59, #328, #338 ) ;
#341 = COORDINATED_UNIVERSAL_TIME_OFFSET ( 5, 0, .BEHIND. ) ;
#342 = EDGE_LOOP ( 'NONE', ( #150 ) ) ;
#343 = DIRECTION ( 'NONE',  ( 1.000000000000000000, 0.0000000000000000000, 0.0000000000000000000 ) ) ;
#344 = AXIS2_PLACEMENT_3D ( 'NONE', #196, #32, #222 ) ;
#345 = PLANE ( 'NONE',  #332 ) ;
#346 = DIRECTION ( 'NONE',  ( 0.0000000000000000000, 5.493903235864684245E-16, 1.000000000000000000 ) ) ;
#347 = DIRECTION ( 'NONE',  ( 1.000000000000000000, -1.131848689187779080E-16, 1.079953945459810363E-16 ) ) ;
#348 = DIRECTION ( 'NONE',  ( 1.079953945459809747E-16, -5.493903235864683259E-16, -1.000000000000000000 ) ) ;
#349 = AXIS2_PLACEMENT_3D ( 'NONE', #290, #74, #156 ) ;
#350 = CYLINDRICAL_SURFACE ( 'NONE', #128, 0.01309999999999999533 ) ;
#351 = DIRECTION ( 'NONE',  ( -1.000000000000000000, 1.131848689187779080E-16, -1.079953945459810363E-16 ) ) ;
#352 = DIRECTION ( 'NONE',  ( 0.0000000000000000000, -5.493903235864682273E-16, -1.000000000000000000 ) ) ;
#353 = TOROIDAL_SURFACE ( 'NONE', #26, 0.01677999999999999631, 0.002999999999999990955 ) ;
#354 = CIRCLE ( 'NONE', #198, 0.01050000000000000239 ) ;
#355 = PRODUCT_DEFINITION_SHAPE ( 'NONE', 'NONE',  #317 ) ;
#356 = DIRECTION ( 'NONE',  ( -1.000000000000000000, 1.131848689187779080E-16, -1.079953945459810363E-16 ) ) ;
#357 = AXIS2_PLACEMENT_3D ( 'NONE', #321, #47, #352 ) ;
#358 = EDGE_CURVE ( 'NONE', #53, #53, #171, .T. ) ;
ENDSEC;
END-ISO-10303-21;
